PrimaNota.ru - самый крупный в мире бесплатный архив песенных текстов, аккордов, табулатур и нот


Kenichi Matsubara - Castlevania 2 - Dwelling Of Doom - таба, видео

Регистрация Запомнить меня
Войти через:  Facebook Google Twitter Vk Yandex Mail.ru

Kenichi Matsubara - Castlevania 2 - Dwelling Of Doom - таба, видео

Печатать
Просмотров: 127
Title:     Dwelling of Doom
Game:      Castlevania 2 - Simon's Quest
Composer:  Kenichi Matsubara
Year:      1988
Tabber:    RyskaG


Time measure 6/8

     Q    E  E  E  E   Q    E  E  E  E   Q    E  E  E  E   Q.
E||------------------|-----------------|-----------------|------|
B||*-----------------|-----------------|---------3--2--3-|-3----|
G||------------------|---------2--1--2-|-2----2----------|------|
D||--0----0--3--2--3-|-3----3----------|-----------------|------|
A||*-----------------|-----------------|-----------------|------|
E||------------------|-----------------|-----------------|------|

   Q    E  E  E  E   Q    E  E  E  E   Q    E  E  E  E   Q.
||-----------------|-----------------|---------1--0--1-|-1----|
||-----------------|---------3--2--3-|-3----3----------|------|
||---------2--1--2-|-2----2----------|-----------------|------|
||-3----3----------|-----------------|-----------------|------|
||-----------------|-----------------|-----------------|------|
||-----------------|-----------------|-----------------|------|

   E  E  E  E  Q     E  E  E  E  Q     E  E  E  E  Q     E  E  E  E  E  E
||-0---------------|-----------------|-----------------|------------------|
||-----------------|-1---------------|-----------------|----------------2-|
||----3--0---------|----0------------|-3---------------|----0--3--0--3----|
||----------2--L---|-------2---------|----2------------|-2----------------|
||-----------------|----------4--L---|-------4--1--L---|------------------|
||-----------------|-----------------|-----------------|------------------|

   Q,    Q.       E  E  E  E  E  E   Q.    Q.      Q.    E  E  E
||--------------|------------------|-------------|---------------|
||-3------------|----------2-----2-|-3-----------|---------------|
||-------2------|-------0-----3----|-------2-----|-L-----0-------|
||--------------|----2-------------|-------------|----------3--2-|
||--------------|------------------|-------------|---------------|
||--------------|------------------|-------------|---------------|

   Q.    E  E  E   Q.    E  E  E   Q.    E  E  E   E  E  E  E  E  E
||---------------|---------------|---------------|----------3--0--1-|
||---------------|---------------|-------3--2--3-|-3--2--3----------|
||---------------|-------2--1--2-|-2-------------|------------------|
||-0-----3--2--3-|-3-------------|---------------|------------------|
||---------------|---------------|---------------|------------------|
||---------------|---------------|---------------|------------------|

   Q.     Q.       E  E  E  E  E  E   Q.     Q.       Q.     E  E  E
||---------------|------------------|---------------|----------------|
||-3-------------|----------2-----2-|-3-------------|----------------|
||--------2------|-------0-----3----|--------2------|-L------0-------|
||---------------|----2-------------|---------------|-----------3--2-|
||---------------|------------------|---------------|----------------|
||---------------|------------------|---------------|----------------|

   Q.     E  E  E   Q.     E  E  E   Q.     E  E  E   E  E  E  E  E  E
||----------------|----------------|----------------|----------3--0----|
||----------------|----------------|--------3--2--3-|-3--2--3--------1-|
||----------------|--------2--0--2-|-2--------------|------------------|
||-0------3--2--3-|-3--------------|----------------|------------------|
||----------------|----------------|----------------|------------------|
||----------------|----------------|----------------|------------------|

   E  E  E  E  E  E   E  E  E  E  E  E   E  E  E  E  E  E   E  E  E  E  E  E
||-6--3--0-----0--6-|-5--1-----------5-|-3--0-----------3-|-1----------------|
||----------2-------|-------3-----3----|-------2-----2----|----3-----------3-|
||------------------|----------2-------|----------3-------|-------2-----2----|
||------------------|------------------|------------------|----------3-------|
||------------------|------------------|------------------|------------------|
||------------------|------------------|------------------|------------------|

   Q.     E  E  E   Q.     Q.       E  E  E  E  E  E
||----------------|---------------|-------------------||
||--------3--2--3-|-0------3------|-2-----0----------*||
||-3--------------|---------------|-------------2-----||
||----------------|---------------|----2-----2-----2--||
||----------------|---------------|------------------*||
||----------------|---------------|-------------------|| 


Duration Legend
---------------
W - whole
H - half
Q - quarter
E - 8th
S - 16th
L - tied note
. - dotted note
Добавлено: 21.07.2012
Вам также может быть интересно:
Другие материалы по этой песне:
  • Аккорды и текст

Страница создана 21.07.2012
http://primanota.ru/kenichi-matsubara/castlevania-2-dwelling-of-doom-chords.htm
Привет, Гость.
Предлагаем пройти революционный курс по гитаре.
Подарок от PrimaNota.Ru, забирай!