PrimaNota.ru - самый крупный в мире бесплатный архив песенных текстов, аккордов, табулатур и нот


Kenichi Asai - Mad Surfer - аккорды и текст, таба, видео

Регистрация Запомнить меня
Войти через:  Facebook Google Twitter Vk Yandex Mail.ru

Kenichi Asai - Mad Surfer - аккорды и текст, таба, видео

Печатать
Просмотров: 343
Mad Surfer
Kenichi Asai
Hey there! This is my first time submitting a guitar tab.
Kenichi Asai is one of the ending song of BLEACH.
Since i'm not that good with the solo part, im just typing the chords.
If you have any comments, feel free to write me : suikotsu@email.com
INTRO ADDED:

e|-------5-5----------------------------5-5---------------------|
B|------------8-5---------------------------8-5-----------------|
G|----------------7-5-7-8-7-5-4-3---------------8~~ ------------|
D|--7-7-----------------------------7-7-------------------------|
A|--------------------------------------------------------------|
E|--------------------------------------------------------------|

3 times
e|-------5-5----------------------|
e|-------5-5----------------------|
B|------------8-5-----------------|
G|----------------7-5-7-8-7-5-4-3-|
D|--7-7---------------------------|
A|--------------------------------|
E|--------------------------------|


Beginning - A, C, G, A

e|-------5-5----------------------|
e|-------5-5----------------------|
B|------------8-5-----------------|
G|----------------7-5-7-8-7-5-4-3-|
D|--7-7---------------------------|
A|--------------------------------|
E|--------------------------------|

A, C, G, A

e|-------5-5----------------------|
e|-------5-5----------------------|
B|------------8-5-----------------|
G|----------------7-5-7-8-7-5-4-3-|
D|--7-7---------------------------|
A|--------------------------------|
E|--------------------------------|

A, C, G, A
A, C, G, A

Chorus - A, C, D, F

(I will add the lyrics later.)
Добавлено: 31.03.2012
Другие материалы по этой песне:

Страница создана 10.03.2012
http://primanota.ru/kenichi-asai/mad-surfer-chords.htm
Привет, Гость.
Предлагаем пройти революционный курс по гитаре.
Подарок от PrimaNota.Ru, забирай!