PrimaNota.ru - самый крупный в мире бесплатный архив песенных текстов, аккордов, табулатур и нот


Kendrick Lamar - King Kunta - бас-таба, видео

Регистрация Запомнить меня
Войти через:  Facebook Google Twitter Vk Yandex Mail.ru

Kendrick Lamar - King Kunta - бас-таба, видео

Печатать
Просмотров: 95
-------------------------------------------------------------------------------
                          KING KUNTA - Kendrick Lamar
-------------------------------------------------------------------------------
Tabbed by: Lauren Marquez
E-mail: lauren.marquez4@gmail.com

Tuning: Standard

Verse:
G|------------------------------------|
D|-2----------------------------------|
A|------------------------------------| x3
E|---0-0h2-2---2/3-3---3h5-5/7-5b--3--|

G|------------------------------------|
D|-2----------------------------------|
A|---------------------5h7-5----------|
E|---0-0h2-2---2/3-3--------5h7-5b-3--|


Chorus:
G|------------------------------------|
D|-2----------------------------------|
A|------------------------------------| x3
E|---0-0h2-2---2/3-3---3h5-5/7-5b--3--|

G|------------------------------------|
D|-2-------------4h5-4----------------|
A|---------------------5-5------------|
E|---0-0h2-2---2-----------7-7-5b--3--|

Verse x1

Half-Step Up:
G|------------------------------------|
D|-3----------------------------------|
A|------------------------------------| x3
E|---1-1h3-3---3/4-4---4h6-6/8-6b--4--|

G|-------------------------------|
D|-3-----------------------------|
A|-------------------------------|
E|---1-1h3-3---3/4-4b--3b--2-----|
B|---------------------------3~--| (no low B string? ignore it or play D up an octave)

Chorus x1
Half-Step Up x1
Chorus x1
Etc.


| /  slide up
| \  slide down
| h  hammer-on
| p  pull-off
| ~  vibrato
| +  harmonic
| x  Mute note
===============================================================================
Добавлено: 22.12.2015
Вам также может быть интересно:
Другие материалы по этой песне:
  • Аккорды и текст

Страница создана 22.12.2015
http://primanota.ru/kendrick-lamar/king-kunta-chords.htm
Привет, Гость.
Предлагаем пройти революционный курс по гитаре.
Подарок от PrimaNota.Ru, забирай!