PrimaNota.ru - самый крупный в мире бесплатный архив песенных текстов, аккордов, табулатур и нот


Kendra - Wanna Know You - бас-таба, видео

Регистрация Запомнить меня
Войти через:  Facebook Google Twitter Vk Yandex Mail.ru

Kendra - Wanna Know You - бас-таба, видео

Печатать
Просмотров: 114
-------------------------------------------------------------------------------
                      Wanna Know You - Kendra
-------------------------------------------------------------------------------

Tabbed By : Ryan Riley
e-mail: block2150@gmail.com
YouTube: http://www.youtube.com/watch?v=Xzk8kiOvvbM

Tuning: Standard

Intro (Play once)

Main Riff

G|---------------------------------------------------------------------------|
D|---------------------------------------------------------------------------|
A|--------7---------7---------7---4-44-7-------------------------------------|
E|--5--55-----5--55-----7--77------------------------------------------------|


Bridge

G|---------------------------------------------------------------------------|
D|---------------------------------------------------------------------------|
A|--4-44---4-44-----------------4-44---4-44-----------7----------------------|
E|----------------7-77---7-77-----------------7-77---------------------------|
Добавлено: 08.11.2013
Другие материалы по этой песне:
  • Аккорды и текст

Страница создана 08.11.2013
http://primanota.ru/kendra/wanna-know-you-chords.htm
Привет, Гость.
Предлагаем пройти революционный курс по гитаре.
Подарок от PrimaNota.Ru, забирай!