PrimaNota.ru - самый крупный в мире бесплатный архив песенных текстов, аккордов, табулатур и нот


Ken Zhu - Here We Are (album) - таба, видео

Регистрация Запомнить меня
Войти через:  Facebook Google Twitter Vk Yandex Mail.ru

Ken Zhu - Here We Are (album) - таба, видео

Печатать
Просмотров: 128
Уроки эстрадного вокала в Санкт-Петербурге
KEN ZHU - Here We Are guitar tab 

Date: July 23, 2003
Trancribed by: Francis Louwie Anthony A. Navos
Artist:Ken Zhu
Tuning: Standard 
Song : Here We Are
*For comments or suggestions just e-mail me at nagz06@yahoo.com*
*(some chords are suspended)*

Intro:  E, G#m, A, Am
         E, G#m, A, B

chord pattern *(verse): E, C#m, G#m, A

sha na jian
ni yan kuang hong le
wo xin ye sui le
hao duo zhen xin
ni zhuang kan bu jian
ba ju li tan zai yan qian

chord pattern *(pre chorus): A, B (2x)

wo bu yao zai gu gu dan dan deng zhe ni
ai qing xi ti fan fan fu fu

chorus:E, C#m, A, Am (2x)
            
here we are
it's not a perfect world
hui bie le ai qing
yao yuan zhou gao fei

here we are
it's not a perfect world
rang shang hen tan bai
jiu bu hui tong che xin fei  

Instrumental: E, G#m, A, B 2x

E||-------4--------------|--4---------|-----------------------|
B||--7--------------7----|------------|------------5----------|
G||------------4---------|--------4---|--4----6---------6-----|
D||----------------------|------------|-----------------------|
A||----------------------|------------|-----------------------|
E||----------------------|------------|-----------------------|

                                                      
------------------------|---------------------------|------||
--5---------5-----------|--------5------------------|------||
-------6---------4------|------------4----6----4----|------||
------------------------|--7------------------------|------||
------------------------|---------------------------|------||
------------------------|---------------------------|------||


E||-------4--------------|--4---------|----------------------|
B||--7---------------7---|------------|-------------5--------|
G||------------4---------|-------4----|---4----6---------6---|
D||----------------------|------------|----------------------|
A||----------------------|------------|----------------------|
E||----------------------|------------|----------------------|

                                                      
-----------------------|----------------------|------||
--5---------5----------|----5-----------------|------||
-------6---------6-----|-------4----6----4----|------||
-----------------------|--7-------------------|------||
-----------------------|----------------------|------||
-----------------------|----------------------|------||
                     
E||------------------||
B||------------------||
G||--4---------------||
D||-------6p4--------||
A||---------------7--||
E||------------------||
hey..yeah yeah

*(verse) E, C#m, G#m, A
wo bu shuo
ni ye hui dong le
wo wei he zhou le
rang ni zi jixue zhe yong gan
ye yao xue zhe jian qiang 

*(pre chorus)A, B (2x)

wo bu yao zai gu gu dan dan deng zhe ni
ai qing xi ti fan fan fu fu

*(chorus)E, C#m, A, Am (2x)

here we are
it's not a perfect world
hui bie le ai qing
yao yuan zhou gao fei

here we are
it's not a perfect world
rang shang hen tan bai
jiu bu hui tong che xin fei  
tong che xin fei

Instrumental: E, G#m, A, B

*(chorus)E, C#m, A, Am (2x)

hey..
here we are
it's not a perfect world
hui bie le ai qing
yao yuan zhou gao fei

here we are
it's not a perfect world
rang shang hen tan bai
jiu bu hui tong che xin fei

Outro: E, G#m, B 2x end w/ E
Добавлено: 02.08.2015
Вам также может быть интересно:
Другие материалы по этой песне:
  • Аккорды и текст

Страница создана 02.08.2015
http://primanota.ru/ken-zhu/here-we-are-album-chords.htm
Привет, Гость.
Предлагаем пройти революционный курс по гитаре.
Подарок от PrimaNota.Ru, забирай!