PrimaNota.ru - самый крупный в мире бесплатный архив песенных текстов, аккордов, табулатур и нот


Ken Zazpi - Ilargia - таба, видео

Регистрация Запомнить меня
Войти через:  Facebook Google Twitter Vk Yandex Mail.ru

Ken Zazpi - Ilargia - таба, видео

Печатать
Просмотров: 181
    Mim 	  Do		     Sol	  Re
Mi |-------0-0--------0-----------------1-1--------2-------|
Si |-----0----------1---1-------------0----------3---3-----|
Sol|---0----------0-------0---0-----0----------2-------2---|
Re |-----------------------------------------0-----------0-|
La |------------3-----------3------------------------------|
Mi |-0----------------------------3------------------------|


Mim  Do     Sol
Esaiozu euriari
Re		Mim
Berriz ez jauzteko
Mim  Do 	Sol
esan bakardadeari
Re		Mim
gaur ez etortzeko…
Mim	   Do    Sol	      Re
(na,na,na,na,na,na,na,na) 2x

eusten nauen soka zara
eta itotzen nauena
ametsak sortu zizkidana
galtzen dituena
(na,na,na,na,na,na,na,na) 2x

Estribillo:
Mim	    Re	      Do		Sol
zuretzat ilargia lapurtuko nuke gauero
Mim	 Re          Dom
eta zu itsu zaude bere argia ikusteko
Mim	   Re		      Do		Sol
irribarrez, gero minez, eragin didazu negarra
Mim 	    Re
nire sua itzali da,
Dom				Mim	   Re
ez zara gaueko izar bakarra, ez zara!!
Mim	   Do    Sol	      Re
(na,na,na,na,na,na,na,na) 2x

esan sentitzen dudana
ez dela egia
une baten sinisteko
ez garen guztia
(na,na,na,na,na,na,na,na) 2x

Estribillo: (2X)


Intro:

E|---------1-1----------------------------------------------|
B|-------3------------1---------------1-1--------3----------|
G|-----2------------3---3---3-------2----------5---5---5----|  X 2
D|---0------------3-------3-------3----------5-------5------|
A|--------------1--------------------------3----------------|
E|-----------------------------1----------------------------|


Esaiozu euriari
berriz ez jausteko
Esan bakardadeari
gaur ez etortzeko.


E|---------1-1----------------------------------------------|
B|-------3------------1---------------1-1--------3----------|
G|-----2------------3---3---3-------2----------5---5---5----|  X 2
D|---0------------3-------3-------3----------5-------5------|
A|--------------1--------------------------3----------------|
E|-----------------------------1----------------------------|


Dm     Bbsus4    F     Csus4
                                          X 2
Na na na Na na na na na


Heusten nauen soka zara
ta itotzen nauena
Ametsak sortu zizkidana
galtzen dituena


E|---------1-1----------------------------------------------|
B|-------3------------1---------------1-1--------3----------|
G|-----2------------3---3---3-------2----------5---5---5----|  X 2
D|---0------------3-------3-------3----------5-------5------|
A|--------------1--------------------------3----------------|
E|-----------------------------1----------------------------|

Dm     Bbsus4    F     Csus4
                                   X 2
Na na na Na na na na na

Estribillo:

  Dm*     C*      Bb       F  C*
Zuretzat ilargia lapurtuko nuke gauero,

  Dm*   C*        Bbm
eta zu itsu zaude bere argia ikusteko.

  Dm*       C*        Bb         F   C*
Irrifarrez, gero minez, eragin didazu negarra,

  Dm*     C*        Bbm               F        C
nire sua itzali da etzara gaueko izar bakarra, etzara.

Na na na na na na na...                X2


E|----5-----5-----6-----6-----6-------5-----5-----3-----3------3-----|
B|--------6-----6-----6-----6-----6-6-----6-----5-----5------5-----5-|
G|-7----7-----7-----7-----7-----7-------5-----5-----5------5-----5---|
D|-------------------------------------------------------------------|
A|-------------------------------------------------------------------|
E|-------------------------------------------------------------------|


Esan sentitzen dudana ez dela egia
Une baten sinisteko ez garen guztia


Dm     Bbsus4    F     Csus4
                                   X 2
Na na na Na na na na na

Estribillo
...
Final

Na na na na na na na na...

E|---------1-1----------------------------------------------|
B|-------3------------1---------------1-1--------3----------|
G|-----2------------3---3---3-------2----------5---5---5----|  X 2
D|---0------------3-------3-------3----------5-------5------|
A|--------------1--------------------------3----------------|
E|-----------------------------1----------------------------|

La versión original se toca afinando la sexta en D,
 quedando el Riff de la siguiente forma:

E|----------------------------------------------------------|
B|---------------------1------------------------3-----------|
G|-------------------3---3------------2-2-----5---5---------|  X 2
D|-------2-3-3-----3-------3--------3-------5-------5-------|
A|-----0---------1-----------1----3-------3-----------3-----|
D|---0--------------------------3---------------------------|

www.kenzazpi.com
Добавлено: 17.06.2012
Другие материалы по этой песне:
  • Аккорды и текст

Страница создана 17.06.2012
http://primanota.ru/ken-zazpi/ilargia-chords.htm
Привет, Гость.
Предлагаем пройти революционный курс по гитаре.
Подарок от PrimaNota.Ru, забирай!