PrimaNota.ru - самый крупный в мире бесплатный архив песенных текстов, аккордов, табулатур и нот


Ken Stringfellow - One Morning - таба, видео

Регистрация Запомнить меня
Войти через:  Facebook Google Twitter Vk Yandex Mail.ru

Ken Stringfellow - One Morning - таба, видео

Печатать
Просмотров: 92
Ken Stringfellow - One morning

Album: Touched
Tuning: Half-step down
Tabbed By: tahoes (tahoes@hotmail.com)


Intro/verse

e||----7--7-7-7-7---4-4---4-4---2--2-2-2-2---0---7-7--------------|
B||----7--7-7-7-7---4-4---5-5---2--2-2-2-2---0---7-7--------------|
G||----8--8-8-8-8---4-4---6-6---3--3-3-3-3---1---8-8--------------|
D||----9--9-9-9-9---6-6---6-6---4--4-4-4-4---2---9-9--------------|
A||----9--9-9-9-9---6-6---4-4---4--4-4-4-4---2---9-9--------------|
E||----7--7-7-7-7---4-4---------2--2-2-2-2---0---7-7--------------|


Chorus

e||--0--0-0--2--2-2--4--4-4--5--5-5--4--4-4---2--2-1-0--0-0--7--7-7-|
B||--0--0-0--2--2-2--4--4-4--5--5-5--5--5-5---2--2-1-0--0-0--7--7-7-|
G||--1--1-1--3--3-3--4--4-4--6--6-6--6--6-6---3--3-2-1--1-1--8--8-8-|
D||--2--2-2--4--4-4--6--6-6--7--7-7--6--6-6---4--4-3-2--2-2--9--9-9-|
A||--2--2-2--4--4-4--6--6-6--7--7-7--4--4-4---4--4-3-2--2-2--9--9-9-|
E||--0--0-0--2--2-2--4--4-4--5--5-5-----------2--2-1-0--0-0--7--7-7-|

e||--0--0-0--2--2-2--4--4-4--5--5-5---4--4-4-4-4---2--2-2-2-2-------|
B||--0--0-0--2--2-2--4--4-4--5--5-5---5--5-5-5-5---2--2-2-2-2-------|
G||--1--1-1--3--3-3--4--4-4--6--6-6---6--6-6-6-6---3--3-3-3-3-------|
D||--2--2-2--4--4-4--6--6-6--7--7-7---6--6-6-6-6---4--4-4-4-4-------|
A||--2--2-2--4--4-4--6--6-6--7--7-7---4--4-4-4-4---4--4-4-4-4-------|
E||--0--0-0--2--2-2--4--4-4--5--5-5----------------2--2-2-2-2-------|

Bridge

e||-7--777--777--777--770-000-000-000-00--||
B||-7--777--777--777--770-000-000-000-00--||  x3
G||-8--888--888--888--881-111-111-111-11--||
D||-9--999--999--999--992-222-222-222-22--||
A||-9--999--999--999--992-222-222-222-22--||
E||-7--777--777--777--770-000-000-000-00--||


e||--4-444-444-444-442-222-222-2-2--||
B||--5-555-555-555-552-222-222-2-2--||
G||--6-666-666-666-663-333-333-3-3--||
D||--6-666-666-666-664-444-444-4-4--||
A||--4-444-444-444-444-444-444-4-4--||
E||------------------2-222-222-2-2--||


Ken Stringfellow - One morning


One morning when you wake up all alone—what do you see?
For walls and for your troubles one less friend awakens thee
Just because you would rather wake up alone
Doesn't mean that another lover's the worst thing you've known

Did no one ever hold you when you cried when you were small?
So now you hold yourself up like a star—outshine us all
Pretty soon pretty face pretty out of touch
The kind of thing when you lose it don't miss it that much,
Not that much

Can't compete with you
Guess I'll be complete without you

One morning when you wake up wonder what
Will you do now
Free from despair you struggle for a cause
To now pursue
Never once did it cross your mind to see
That the author of happiness could be sad as me

Shed the old disguises—try your new luck on for size

One morning when you think you're all alone
Just wake me up

www.kenstringfellow.com
Добавлено: 05.07.2012
Вам также может быть интересно:
Другие материалы по этой песне:
  • Аккорды и текст

Страница создана 05.07.2012
http://primanota.ru/ken-stringfellow/one-morning-chords.htm
Привет, Гость.
Предлагаем пройти революционный курс по гитаре.
Подарок от PrimaNota.Ru, забирай!