PrimaNota.ru - самый крупный в мире бесплатный архив песенных текстов, аккордов, табулатур и нот


Ken Ring - Tittar Ner - таба, видео

Регистрация Запомнить меня
Войти через:  Facebook Google Twitter Vk Yandex Mail.ru

Ken Ring - Tittar Ner - таба, видео

Печатать
Просмотров: 57
-------------------------------------------------------------------------------
                             tittar ner - Ken ring
-------------------------------------------------------------------------------
Tabbed by: phille
E-mail: phst@edu-kavlinge.se

Tuning:
 intro + ref - everything
e|--------0-------------0-------------0-------------------|
B|-1---------1---0----------0--1----------1--1----1----3--|
G|--------------------------------------------------------|
D|--------------------------------------------------------|        x2
A|-----------------------------3----3-----------3---------|
E|-1---1---------0---0-------------------------------3----|
     vers - down
e|---------------------0------------0-----------0--------------------------------------|
B|-1------0------0--------0---1-------1---3--------3-----------------------------------|
G|-----------1-------------------------------------------------------------------------|
D|-------------------------------------------------------------------------------------|
A|----------------------------3---3-------3---3----------------------------------------|
E|-1---1---------0---0-----------------------------------------------------------------|

e|-------0----------------0---------------------------------------------------------|
B|-1---------1----0-----------0-----1-----------------------------------------------|
G|----------------------------------------------------------------------------------|
D|----------------------------------------------------------------------------------|
A|----------------------------------------------------------------------------------|
E|-1---1----------0---0-------------3-----------------------------------------------|


************************************

| /   slide up
| \   slide down
| h   hammer-on
| p   pull-off
| ~   vibrato
| +   harmonic
| x   Mute note
| b   Bend
| pb  Pre-bend
| br  Bend release
| pbr Pre-bend release
| brb Bend release bend

************************************
Добавлено: 02.12.2015
Другие материалы по этой песне:
  • Аккорды и текст

Страница создана 02.12.2015
http://primanota.ru/ken-ring/tittar-ner-chords.htm
Привет, Гость.
Предлагаем пройти революционный курс по гитаре.
Подарок от PrimaNota.Ru, забирай!