PrimaNota.ru - самый крупный в мире бесплатный архив песенных текстов, аккордов, табулатур и нот


Ken Ashcorp - Touch Fluffy Tail - таба, видео

Регистрация Запомнить меня
Войти через:  Facebook Google Twitter Vk Yandex Mail.ru

Ken Ashcorp - Touch Fluffy Tail - таба, видео

Печатать
Просмотров: 110
Tabbed by: Joshua Garcia (joshuag523@aol.com)

Tabs for the song: Touch Fluffy Tail by Ken Ashcorp
Please rate and let me know if you have any corrections. Thank you.


Tuning: Standard (E A D G B E)


Main Riff
Guitar:
E||-------------------------------------|-------------------------------------|
B||--3-3----3-3----3-3----3-3----5---5--|-------------------------------------|
G||--2-2----2-2----2-2----2-2----2---2--|--7-7----7-7----7-7----7-7----7---7--|
D||--4-4----4-4----4-4----4-4----4---4--|--6-6----6-6----6-6----6-6----6---6--|
A||--2-2----2-2----2-2----2-2----2---2--|--7-7----7-7----7-7----7-7----7---7--|
E||-------------------------------------|--0-0----0-0----0-0----0-0----5---6--|


Bass:
G||---------------------------------------|-------------------------------------|
D||---------------------------------------|-------------------------------------|
A||---------------------------------------|-------------------------------------|
E||--7-7----7-7----7-7----7-7----10---10--|--0-0----0-0----0-0----0-0----5---6--|


G||---------------------------------------|-------------------------------------|
D||---------------------------------------|-------------------------------------|
A||---------------------------------------|-------------------------------------|
E||--7-7----7-7----7-7----7-7----10~b12~--|--0-0----0-0----0-0----0-0----5---6--|




Pre-Chorus
Guitar:
E||----------------------------------------|-----------------------------------|
B||----------------------------------------|-----------------------------------|
G||----------------------------------------|-----------------------------------|
D||----------------------------------------|--5-5-5-5-5-5-5-5-5-5-5-5-7-7-7-7--|
A||----------------------------------------|--5-5-5-5-5-5-5-5-5-5-5-5-7-7-7-7--|
E||----------------------------------------|--3-3-3-3-3-3-3-3-3-3-3-3-5-5-5-5--|


Bass:
G||----------------------------------------|-----------------------------------|
D||----------------------------------------|-----------------------------------|
A||----------------------------------------|-----------------------------------|
E||--7-7----10-10----10-10----2-2---1---0--|--3-3-3-3-3-3-3-3-3-3-3-3-5-5-5-5--|




Chorus
Guitar:
E||---------------------------------------------------------------------------|
B||---------------------------------------------------------------------------|
G||---------------------------------------------------------------------------|
D||--9-9-9-9-9-9-9-9-5-5-5-5-5-5-5-5-12-12-12-12-12-12-12-12-7-7-7-7-8-8-8-8--|
A||--9-9-9-9-9-9-9-9-5-5-5-5-5-5-5-5-12-12-12-12-12-12-12-12-7-7-7-7-8-8-8-8--|
E||--7-7-7-7-7-7-7-7-3-3-3-3-3-3-3-3-10-10-10-10-10-10-10-10-5-5-5-5-6-6-6-6--|


E||---------------------------------------------------------------------------|
B||---------------------------------------------------------------------------|
G||---------------------------------------------------------------------------|
D||--9-9-9-9-9-9-9-9-5-5-5-5-5-5-5-5-12-12-12-12-12-12-12-12-4-4~---4-4~---4--| x2
A||--9-9-9-9-9-9-9-9-5-5-5-5-5-5-5-5-12-12-12-12-12-12-12-12-4-4~---4-4~---4--|
E||--7-7-7-7-7-7-7-7-3-3-3-3-3-3-3-3-10-10-10-10-10-10-10-10-2-2~---2-2~---2--|


Bass:
G||---------------------------------------------------------------------------|
D||---------------------------------------------------------------------------|
A||---------------------------------------------------------------------------|
E||--7-7-7-7-7-7-7-7-3-3-3-3-3-3-3-3-10-10-10-10-10-10-10-10-5-5-5-5-6-6-6-6--|


G||---------------------------------------------------------------------------|
D||---------------------------------------------------------------------------|
A||---------------------------------------------------------------------------| x2
E||--7-7-7-7-7-7-7-7-3-3-3-3-3-3-3-3-10-10-10-10-10-10-10-10-2-2~---2-2~---2--|



Bridge
Guitar:
E||--2~--|----------------------------|---------------------------------------|
B||--3~--|--3~------------------------|--3~-----------------------------------|
G||--4~--|--4~-----11~-----6~-----7~--|--4~-----11~-----6~-----7---7---7-7-7--|
D||--4~--|--5~-----12~-----7~-----9~--|--5~-----12~-----7~-----9---9---9-9-9--|
A||--2~--|--5~-----12~-----7~-----9~--|--5~-----12~-----7~-----9---9---9-9-9--|
E||------|--3~-----10~-----5~-----7~--|--3~-----10~-----5~-----7---7---7-7-7--|


E||--------------------------------------------------------------------------|
B||--------------------------------------------------------------------------|
G||--------------------------------------------------------------------------|
D||--5-5---5-5---5-5---12-12-12---12---12\---7-7---7-8-8---8-9-9---9-9-9-9\--|
A||--5-5---5-5---5-5---12-12-12---12---12\---7-7---7-8-8---8-9-9---9-9-9-9\--|
E||--3-3---3-3---3-3---10-10-10---10---10\---5-5---5-6-6---6-7-7---7-7-7-7\--|


E||------------------------------|
B||------------------------------|
G||------------------------------|
D||--5~--------8~----8--8--8--8--|
A||--5~--------8~----8--8--8--8--|
E||--3~--------6~----6--6--6--6--|


Bass:
G||-------------------------------------------------------------------|
D||-------------------------------------------------------------------|
A||-------------------------------------------------------------------|
E||--7-7-7-7-7-7-7-7-7-7-7-7-7-7-7-7-7-7-7-7-7-7-7-7-7-7-7-7-7-7-7-7--|


G||---------------------------------------------------------------------------|
D||---------------------------------------------------------------------------|
A||---------------------------------------------------------------------------|
E||--3-3-3-3-3-3-3-3-10-10-10-10-10-10-10-10-5-5-5-5-6-6-6-6-7-7-7-7-7-7-7-7--|


G||--------------------------------------------------------------------------|
D||--------------------------------------------------------------------------|
A||--------------------------------------------------------------------------|
E||--3-3-3-3-3-3-3-3-10-10-10-10-10-10-10-10-5-5-5-5-5-5-5-5-7---7----7-7-7--|


G||--------------------------------------------------------------------------|
D||--------------------------------------------------------------------------|
A||--------------------------------------------------------------------------|
E||--3-3---3-3---3-3---10-10-10---10---10\---5-5---5-6-6---6-7-7---7-7-7-7\--|


G||---------------------------------------------------------------|
D||---------------------------------------------------------------|
A||---------------------------------------------------------------|
E||--3-3-3-3-3-3-3-3-3-3-3-3-3-3-3-3-6-6-6-6-6-6-6-6--6--6--6--6--|




Tablature Legend
----------------
 h   hammer-on
 p   pull-off
 b   bend
 pb  pre-bend
 r   release bend
 ~   hold / vibrato
 .   palm mute
 /   slide up
 \   slide down
 *   pinch harmonic
 '   natural harmonic
 x   mute note
 T   tap
Добавлено: 09.12.2015
Другие материалы по этой песне:
  • Аккорды и текст

Страница создана 09.12.2015
http://primanota.ru/ken-ashcorp/touch-fluffy-tail-chords.htm
Привет, Гость.
Предлагаем пройти революционный курс по гитаре.
Подарок от PrimaNota.Ru, забирай!