PrimaNota.ru - самый крупный в мире бесплатный архив песенных текстов, аккордов, табулатур и нот


Ken Ashcorp - Shut Up And Trust This - таба, видео

Регистрация Запомнить меня
Войти через:  Facebook Google Twitter Vk Yandex Mail.ru

Ken Ashcorp - Shut Up And Trust This - таба, видео

Печатать
Просмотров: 186
Tabbed by: Joshua Garcia (joshuag523@aol.com)

Tabs for the song: Shut Up And Trust This by Ken Ashcorp
Please rate and let me know if you have any corrections. Thank you.


Tuning: Standard (E A D G B E)


Main Riff:
E||-----------------------------------------------------------|
B||--7---7-7-x-4---4-4-4-4-4-x-x-2---2-2-x-6---6-6-6-6-6-x-x--|
G||--8---8-8-x-4---4-4-4-4-4-x-x-3---3-3-x-6---6-6-6-6-6-x-x--|
D||--8---8-8-x-4---4-4-4-4-4-x-x-3---3-3-x-6---6-6-6-6-6-x-x--|
A||--6---6-6-x-2---2-2-2-2-2-x-x-1---1-1-x-4---4-4-4-4-4-x-x--|
E||-----------------------------------------------------------|



Verse
(First played)
E||---------------------|---------------------|---------------------|---------------------|
B||--7---7-----4---4-4--|--2---2-----6---6-6--|--7---7-----4---4-4--|--2---2-----7~--6-6--|
G||--8---8-----4---4-4--|--3---3-----6---6-6--|--8---8-----4---4-4--|--3---3-----6~--6-6--|
D||--8---8-----4---4-4--|--3---3-----6---6-6--|--8---8-----4---4-4--|--3---3-----6~--6-6--|
A||--6---6-----2---2-2--|--1---1-----4---4-4--|--6---6-----2---2-2--|--1---1-----4~--4-4--|
E||---------------------|---------------------|---------------------|---------------------|


(Main Verse Riff)
E||---------------------|---------------------|
B||--7---7-----4---4-4--|--2---2-----6---6-6--|
G||--8---8-----4---4-4--|--3---3-----6---6-6--|
D||--8---8-----4---4-4--|--3---3-----6---6-6--|
A||--6---6-----2---2-2--|--1---1-----4---4-4--|
E||---------------------|---------------------|




Tablature Legend
----------------
 h   hammer-on
 p   pull-off
 b   bend
 pb  pre-bend
 r   release bend
 ~   hold / vibrato
 .   palm mute
 /   slide up
 \   slide down
 *   pinch harmonic
 '   natural harmonic
 x   mute note
 T   tap
Добавлено: 09.12.2015
Другие материалы по этой песне:
  • Аккорды и текст

Страница создана 09.12.2015
http://primanota.ru/ken-ashcorp/shut-up-and-trust-this-chords.htm
Привет, Гость.
Предлагаем пройти революционный курс по гитаре.
Подарок от PrimaNota.Ru, забирай!