PrimaNota.ru - самый крупный в мире бесплатный архив песенных текстов, аккордов, табулатур и нот


Ken Ashcorp - Hunter - бас-таба, видео

Регистрация Запомнить меня
Войти через:  Facebook Google Twitter Vk Yandex Mail.ru

Ken Ashcorp - Hunter - бас-таба, видео

Печатать
Просмотров: 61
Уроки эстрадного вокала в Санкт-Петербурге
-------------------------------------------------------------------------------
                             KEN ASHCORP - Hunter
-------------------------------------------------------------------------------
Tabbed by: 5ko 13.1.16
You can check my cover here: https://www.youtube.com/watch?v=5vWzz80pofo

Tuning:EADG


Intro
G|-----------------------------------|   G|--------------------------------------|
D|-----------------------------------|   D|--------------------------------------|
A|12-0-0--12-0-0--12-0-0-8-0-10-0-11-|   A|12-0-0--12-0-0--12-12-12-8-0-10-10-10-|
E|-----------------------------------|x3 E|--------------------------------------|

G|---------------------------------------------------|
D|---------------------------------------------------|
A|--------------------------------------------11-11--|
E|13-13-13-13-13-13-13-13-10--10-10-12--12-12--------|

G|------------------------------------|   G|--------------------------------------|
D|------------------------------------|   D|--------------------------------------|
A|12-0-0--12-0-0--12-0-0-8-0-10-10-11-|   A|12-0-0--12-0-0--12-12-12-8-0-10-10-10-|
E|------------------------------------|x3 E|--------------------------------------|

G|---------------------------------------------------|
D|---------------------------------------------------|
A|--------------------------------------------11-11--|
E|13-13-13-13-13-13-13-13-10--10-10-12--12-12--------|


Bridge
G|---------------------------------------------------|
D|---------------------------------------------------|
A|12-12-12-12-12-12-12-12-12-12-12-12-15-12-14-12----|
E|---------------------------------------------------|

Verse
G|------------------------------------------------------------------------------------
D|------------------------------------------------------------------------------------
A|12-12-12-12-12-12-12-12-12-12-12-12-12-12-12-12-0-8-8-8-8-8-8-8-8-8-8-8-8-8-8-8-8---
E|------------------------------------------------------------------------------------

--------------------------------------------------------------------------------------|
-------------------------------------------10-10-10-----------------------------------|
--0-12-12-12-12-12-12-12-12-12-12-12-12-12----------8-8-8-8-8-8-8-8-8-8-8-8-8-8-8-8---|
--------------------------------------------------------------------------------------|x4


Pre Chores
G|------------------------------------------------------------------------------------|
D|------------------------------------------------------------------------------------|
A|12-12-12-12-8-8-8-8-8-8-8-8-8-8-8-8-8-8-8-8-7-7-7-7-7-7-7-7-11-11-11-11-11-11-11-11-|
E|------------------------------------------------------------------------------------|

G|----------------------------------------------------------------|
D|----------------------------------------------------------------|
A|12-0-0-12-0-0--12-0-0--12-0-0-8-0-10-0-11-0-12-12-0-12-12-12\-0-|
E|----------------------------------------------------------------|


Chores
G|-----------------------------------------------------------------------------------|
D|------------------------------------------7-7-7-7-7-7-7-7-10-10-10-10-10-10-10-10--|
A|8-8-8-8-8-8-8-8-8-11-11-11-11-11-11-11-11------------------------------------------|
E|-----------------------------------------------------------------------------------|

G|---------------------------------------------------------------------------|
D|---------------------------------------------------------------------------|
A|8-8-8-8-8-8-8-8-7-7-7-7-7-7-7-7-12-12-12-12--12--12-12-12-12-12-10-0-10-12-|
E|----------------------------------------------------------------------------|

G|-----------------------------------------------------------------------------------|
D|------------------------------------------7-7-7-7-7-7-7-7-10-10-10-10-15-15-15-15--|
A|8-8-8-8-8-8-8-8-8-11-11-11-11-11-11-11-11------------------------------------------|
E|-----------------------------------------------------------------------------------|

G|-----------------------------------------------------------------------|
D|--------------------------------------14-------------------------------|
A|8-8-8-8-8-8-8-8-7-7-7-7-7-7-7-7-12-12-----12-12-0--12-12-0-8-0-10-0-11-|
E|-----------------------------------------------------------------------|

G|--------------------------------------|   -------------------------------------------------|
D|--------------------------------------|   -------------------------------------------------|
A|12-12-0--12-12-0--12-12-0-8-0-10-0-11-|   -------------------------------------------------|
E|--------------------------------------|x2 -12-12-12-12-12-12-12-12-12-12-12-12-12-12-12-12-| 


Verse
G|------------------------------------------------------------------------------------
D|------------------------------------------------------------------------------------
A|12-12-12-12-12-12-12-12-12-12-12-12-12-12-12-12-0-8-8-8-8-8-8-8-8-8-8-8-8-8-8-8-8---
E|------------------------------------------------------------------------------------

--------------------------------------------------------------------------------------|(second repeat is with
-------------------------------------------10-10-10-----------------------------------| slight variation in 
--0-12-12-12-12-12-12-12-12-12-12-12-12-12----------8-8-8-8-8-8-8-8-8-8-8-8-8-8-8-8---| rhythm in last measure)
--------------------------------------------------------------------------------------|x4


Bridge2
G|-------------------------------------------------------------------------------------------------|
D|12~----------------12~--14~----------------------------------------------------------------------|
A|-----7~--12~10~8~------------12~-12~-12~-8-10-11-12-12-12-12-12-12-12-12-12-12-12-12-12-12-12-12-|
E|-------------------------------------------------------------------------------------------------|


Chores
Chores
G|-----------------------------------------------------------------------------------|
D|------------------------------------------7-7-7-7-7-7-7-7-10-10-10-10-10-10-10-10--|
A|8-8-8-8-8-8-8-8-8-11-11-11-11-11-11-11-11------------------------------------------|
E|-----------------------------------------------------------------------------------|

G|---------------------------------------------------------------------------|
D|---------------------------------------------------------------------------|
A|8-8-8-8-8-8-8-8-7-7-7-7-7-7-7-7-12-12-12-12--12--12-12-12-12-12-10-0-10-12-|
E|----------------------------------------------------------------------------|

G|-----------------------------------------------------------------------------------|
D|------------------------------------------7-7-7-7-7-7-7-7-10-10-10-10-15-15-15-15--|
A|8-8-8-8-8-8-8-8-8-11-11-11-11-11-11-11-11------------------------------------------|
E|-----------------------------------------------------------------------------------|

G|-----------------------------------------------------------------------|
D|--------------------------------------14-------------------------------|
A|8-8-8-8-8-8-8-8-7-7-7-7-7-7-7-7-12-12-----12-12-0--12-12-0-8-0-10-0-11-|
E|-----------------------------------------------------------------------|

G|--------------------------------------|   -----------------------------|
D|--------------------------------------|   -----------------------------|
A|12-12-0--12-12-0--12-12-0-8-0-10-0-11-|   -----------------------------|
E|--------------------------------------|x2 -12-12-12-12-12-12-12---/19\-| 


Something
G|----------------------------------------------------------------------------------------
D|----------------------------------------------------------------------------------------
A|12-12-12-12-12-12-12-12-11-11-11-11-11-11-11-11-10-10-10-10-10-10-10-10-9-9-9-9-9-9-9-9-
E|----------------------------------------------------------------------------------------

--------------------------------------------------------------------------|
--------------------------------------------------------------------------|
--0-8-8-8-8-8-8-8-8-8-8-8-8-8-8-8-0-7-7-7-7-7-7-7-7-7-7-8-8-10-10-11-11---|
--------------------------------------------------------------------------|x2

G|--------------------------------------------------------------------------|
D|--------14----------------------------------------------------------------|
A|--12-12-----12-12-0--12-12-0-8-0-10-0-11-12-12-12-12-12-12-12-12-12-12\-0-|
E|--------------------------------------------------------------------------|


Outro
G|----------------------------------------------------------------------|
D|-------7~-10~-15-14---------------------------------------------------|
A|8~-11~--------------8~-7~-12~-12-12-10-10-----------------------------|
E|----------------------------------------------------------------------|

G|----------------------------------------------------------------------|
D|---10-12-----10-12-7~-10-12-10~-15-14----10-12----10-12---------------|
A|8~-------11~--------------------------8~-------7~-------12~-12~---0~--|
E|----------------------------------------------------------------------|


| /  slide up
| \  slide down
| h  hammer-on
| p  pull-off
| ~  vibrato
| +  harmonic
| x  Mute note
===============================================================================
Добавлено: 27.05.2016
Другие материалы по этой песне:
  • Аккорды и текст

Страница создана 27.05.2016
http://primanota.ru/ken-ashcorp/hunter-chords.htm
Привет, Гость.
Предлагаем пройти революционный курс по гитаре.
Подарок от PrimaNota.Ru, забирай!