PrimaNota.ru - самый крупный в мире бесплатный архив песенных текстов, аккордов, табулатур и нот


Ken Arai - Next To You - таба, видео

Регистрация Запомнить меня
Войти через:  Facebook Google Twitter Vk Yandex Mail.ru

Ken Arai - Next To You - таба, видео

Печатать
Просмотров: 104
---------------------------------------------------------------------------------------------------------------
                                          Artist - Ken Arai
                                         *******************
                                         Song - Next To You
                                        ********************
                                        Tabbed By - Ayreon77
                                       **********************
---------------------------------------------------------------------------------------------------------------
Tuning = Standard


e|---------------|---s----|--p----------|---------------|--p----|--------s-----------------10----|--p----|
B|---------12-10-|-10\8-7-|-8-7-7-----7-|---------12-10-|-8-7-7-|-10-8-10\13-12---------------10-|-8-7-7-|
G|-12-9-12-------|--------|-------9-7---|-12-9-12-------|-------|---------------11-12-9-12-------|-------|
D|---------------|--------|-------------|---------------|-------|--------------------------------|-------|
A|---------------|--------|-------------|---------------|-------|--------------------------------|-------|
E|---------------|--------|-------------|---------------|-------|--------------------------------|-------|


e|--p-s---------|---------------|----------|----------------------------------|--------------------------|
B|-8-7\15-12-10-|---------------|---s------|---p------13-12-------------------|-----------s-------s--s---|
G|--------------|-12--s---16-14-|-12\11-11-|-14-12-11-------11-12--12-12-11-9-|-9-12-11-12\14--14-\16/17-|
D|--------------|----9\14-------|----------|----------------------------------|--------------------------|
A|--------------|---------------|----------|----------------------------------|--------------------------|
E|--------------|---------------|----------|----------------------------------|--------------------------|

00:41
e|-----------------------------------|---s------------------------|---p-----------------|---------|
B|------------s-------------s--------|-13\12-------12----15-13-12-|-13-12----12---------|---13-12-|
G|-16-16-14-14\12-12~~--12-12-\14----|-------14-12----14----------|-------14----14-12-9-|-9-------|
D|--------------------------------14-|----------------------------|---------------------|---------|
A|-----------------------------------|----------------------------|---------------------|---------|
E|-----------------------------------|----------------------------|---------------------|---------|

00:54
e|--------------------------------|-------------------------------------|
B|---s---------h--h---12-13-12~~~-|---s------h------------------h-------|
G|-12\14-14--11-12-14-------------|-12\11--12-14-14--14-14-12-11-12-9~~-|
D|--------------------------------|-------------------------------------|
A|--------------------------------|-------------------------------------|
E|--------------------------------|-------------------------------------|
                                                                     01:09
01:01                                                                ..........Fast Part.............
e|-----------s-------|-------------------|--------------------------|--------------p-----p-----------|
B|---13-12-10\8-10~~-|------s--s---------|---s------s---------------|--h--h---10-12-10-13-12-13-12~~-|
G|-9-----------------|-11-11\12/14-16-16-|-12\11--12\14-16-14-17-16-|-9-11-12------------------------|
D|-------------------|-------------------|--------------------------|--------------------------------|
A|-------------------|-------------------|--------------------------|--------------------------------|
E|-------------------|-------------------|--------------------------|--------------------------------|



01:12
e|---------------|---s----|--p----------|---------------|--p----|--------s-----------------10----|--p----|
B|---------12-10-|-10\8-7-|-8-7-7-----7-|---------12-10-|-8-7-7-|-10-8-10\13-12---------------10-|-8-7-7-|
G|-12-9-12-------|--------|-------9-7---|-12-9-12-------|-------|---------------11-12-9-12-------|-------|
D|---------------|--------|-------------|---------------|-------|--------------------------------|-------|
A|---------------|--------|-------------|---------------|-------|--------------------------------|-------|
E|---------------|--------|-------------|---------------|-------|--------------------------------|-------|


e|--s---------|---------------|----------|-------------------|---------------|---s----|--p----------|
B|-8\15-12-10-|---------------|---s------|---p------13-12----|---------12-10-|-10\8-7-|-8-7-7-----7-|
G|------------|-12--s---16-14-|-12\11-11-|-14-12-11-------11-|-12-9-12-------|--------|-------9-7---|
D|------------|----9\14-------|----------|-------------------|---------------|--------|-------------|
A|------------|---------------|----------|-------------------|---------------|--------|-------------|
E|------------|---------------|----------|-------------------|---------------|--------|-------------|

01:33
e|---------------|--p----|--------s-----------------10----|--p----|--p-s---------|---------------|----------|
B|---------12-10-|-8-7-7-|-10-8-10\13-12---------------10-|-8-7-7-|-8-7\15-12-10-|---------------|---s------|
G|-12-9-12-------|-------|---------------11-12-9-12-------|-------|--------------|-12--s---16-14-|-12\11-11-|
D|---------------|-------|--------------------------------|-------|--------------|----9\14-------|----------|
A|---------------|-------|--------------------------------|-------|--------------|---------------|----------|
E|---------------|-------|--------------------------------|-------|--------------|---------------|----------|

01:45
e|-------------------|----------------------|----------------------------------------|
B|---p------13-12----|---s------------------|----------------------------------------|
G|-14-12-11-------11-|-14\16--12-12~~--11~~-|-16-16-14-14-12-14-16-12-12~~-12~~-11~~-|
D|-------------------|----------------------|----------------------------------------|
A|-------------------|----------------------|----------------------------------------|
E|-------------------|----------------------|----------------------------------------|

01:55
e|-------------------------------|---------------------------------|-------------------|
B|-------------------------------|---------------------------------|-------------------|
G|-12-12-16-16-14-14-12-12-12-12-|-16-16-14-14-12-12-14-16-11-11~~-|-11-11-9-11-12--11-|
D|-------------------------------|---------------------------------|-------------------|
A|-------------------------------|---------------------------------|-------------------|
E|-------------------------------|---------------------------------|-------------------|

02:03
e|-----------------------|------------------------------------------------------------|
B|-----------------------|--------h--s------s-----------------s---------------s-------|
G|-11-9-11-12-12-12-11-9-|-9-12-11-12\14-14-\16-17-16-16-14-14\12-12~~~--12-12-\14----|
D|-----------------------|---------------------------------------------------------14-|
A|-----------------------|------------------------------------------------------------|
E|-----------------------|------------------------------------------------------------|


e|---s------------------------|---p-----------------|---------|
B|-13\12-------12----15-13-12-|-13-12----12---------|---13-12-|
G|-------14-12----14----------|-------14----14-12-9-|-9-------|
D|----------------------------|---------------------|---------|
A|----------------------------|---------------------|---------|
E|----------------------------|---------------------|---------|


e|--------------------------------|-------------------------------------|
B|---s---------h--h---12-13-12~~~-|---s------h------------------h-------|
G|-12\14-14--11-12-14-------------|-12\11--12-14-14--14-14-12-11-12-9~~-|
D|--------------------------------|-------------------------------------|
A|--------------------------------|-------------------------------------|
E|--------------------------------|-------------------------------------|
                                                                     02:39
02:31                                                               ..........Fast Part.............
e|-----------s-------|-------------------|--------------------------|--------------p-----p-----------|
B|---13-12-10\8-10~~-|------s--s---------|---s------s---------------|--h--h---10-12-10-13-12-13-12~~-|
G|-9-----------------|-11-11\12/14-16-16-|-12\11--12\14-16-14-17-16-|-9-11-12------------------------|
D|-------------------|-------------------|--------------------------|--------------------------------|
A|-------------------|-------------------|--------------------------|--------------------------------|
E|-------------------|-------------------|--------------------------|--------------------------------|


02:41
KEY CHANGE
***********
e|----------------|---s----|--p-----------|----------------|--p----|--------s---------|
B|----------13-11-|-11\9-8-|-9-8-8------8-|----------13-11-|-9-8-8-|-11-9-11\14-13----|
G|-13-10-13-------|--------|-------10-8---|-13-10-13-------|-------|---------------12-|
D|----------------|--------|--------------|----------------|-------|------------------|
A|----------------|--------|--------------|----------------|-------|------------------|
E|----------------|--------|--------------|----------------|-------|------------------|

02:50
e|----------11----|--s------s---------|----------------|----------|-------------------|
B|-------------11-|-9\8-8--9\16-13-11-|----------------|---s------|---p------14-13----|
G|-13-10-13-------|-------------------|-13---s---17-15-|-13\12-12-|-15-13-12-------12-|
D|----------------|-------------------|----10\15-------|----------|-------------------|
A|----------------|-------------------|----------------|----------|-------------------|
E|----------------|-------------------|----------------|----------|-------------------|

02:59
e|----------------|---s----|--p-----------|----------------|--p----|--------s---------|
B|----------13-11-|-11\9-8-|-9-8-8------8-|----------13-11-|-9-8-8-|-11-9-11\14-13----|
G|-13-10-13-------|--------|-------10-8---|-13-10-13-------|-------|---------------12-|
D|----------------|--------|--------------|----------------|-------|------------------|
A|----------------|--------|--------------|----------------|-------|------------------|
E|----------------|--------|--------------|----------------|-------|------------------|


e|----------11----|--s------s---------|----------------|----------|---------------------------|
B|-------------11-|-9\8-8--9\16-13-11-|----------------|---s------|---p------14-13------------|
G|-13-10-13-------|-------------------|-13---s---17-15-|-13\12-12-|-15-13-12-------12-13~~~~~-|
D|----------------|-------------------|----10\15-------|----------|---------------------------|
A|----------------|-------------------|----------------|----------|---------------------------|
E|----------------|-------------------|----------------|----------|---------------------------|



ENJOY............
-
Добавлено: 25.06.2016
Другие материалы по этой песне:
  • Аккорды и текст

Страница создана 25.06.2016
http://primanota.ru/ken-arai/next-to-you-chords.htm
Привет, Гость.
Предлагаем пройти революционный курс по гитаре.
Подарок от PrimaNota.Ru, забирай!