PrimaNota.ru - самый крупный в мире бесплатный архив песенных текстов, аккордов, табулатур и нот


Kem - Share My Life - таба, видео

Регистрация Запомнить меня
Войти через:  Facebook Google Twitter Vk Yandex Mail.ru

Kem - Share My Life - таба, видео

Печатать
Просмотров: 89
Hey Everyone,

Here is an awesome soul song from Kem that I was surprised wasn't already on this 
site. The song has three or four main chords throughout that are pretty easy if 
you want the most basic way to play the song. If you want to play it with the main 
riff as well as the chords it gets somewhat more difficult but nothing practice 
wont fix. Here we go.

Chords Used

    B/E    C#m7/E   B     C#m7     A 
e|--x-------4-------x------4-------x--|
B|--4-------5-------4------5-------2--|
G|--4-------4-------4------4-------2--|
D|--4-------6-------4------6-------2--|
A|--2-------4-------2------4-------0--|
E|--0-------0-------x------x-------x--|

(Intro Section and Verse)

    B/E                 C#m7/E                      B/E                  C#m7/E
e|----------------------------------------------------------------------------------------|
B|--4-------------4-----5------------------5--------4--------------4------5------------5--|
G|------------4----------------------4------------------------4--------------------4------|
D|--------4------------------4h6-------------------------4--------------------6-----------|
A|----------------------------------------------------------------------------------------|
E|--0-------------------0---------------------------0---------------------0---------------|

   B                   C#m7                         B                    C#m
e|----------------------------------------------------------------------------------------|
B|--4-------------4-----5------------------5--------4--------------4------5-------5h7p5---|
G|------------4----------------------4------------------------4---------------------------|
D|--------4------------------4h6-------------------------4--------------------------------|
A|--2-----------------------------------------------2-------------------------------------|
E|------------------------------------------------------------------------0---------------|


(Verse Section) This section will follow the same pattern as the intro. Be aware of the timing

B/E    C#m7/E          B/E    C#7/E
         Makes any difference, 
B    C#m7          B    C#m7        
         I still love you, girl
B/E    C#m7/E          B/E    C#m7/E                       
         You're my weakness, 
B    C#m7          B    C#m7   B C#m7 A
         You changed my world

(Chorus) Listin to song for correct timing

A                A B C#m7 B C#m7 A 
Share my life
A                A B C#m7 B C#m7 A
Trust in me
A                A B C#m7 B C#m7 A
You're all I want
A            A B C#m7
Everything I need, ooh, baby

(Verse)

B/E    C#m7/E          B/E    C#7/E
             Makes any difference, 
B    C#m7          B    C#m7        
             I give you all my heart
B/E    C#m7/E          B/E    C#7/E
             Girl, my sun sets, 
B    C#m7          B    C#m7        
             Anywhere you are
B/E    C#m7/E          B/E    C#7/E
             Maybe I'm a dreamer, 
B    C#m7          B    C#m7        
             You're still my queen
B/E    C#m7/E          B/E    C#7/E
             Your love's like a river, girl, 
B    C#m7          B    C#m7   B C#m7 A
             It's runnin' right through me

(Chorus)

A                A B C#m7 B C#m7 A
Share my life, hey girl
A                A B C#m7 B C#m7 A
You can trust in me, baby
A                A B C#m7 B C#m7 A
You're all I want, hey girl
A                   A B C#m7
You're everything I need, hey babe

(Break) You can play the Verse Section Here

You're my dream and my joy
My heart belongs to you, girl
So I sat down one day and I, I wrote this song
Cause I need you in my world


(Chorus) Play the chorus until the end of the song  (A B C#m7 B C#m7 A)

Share my life baby, hey girl
You can trust in me girl, baby
You're all I want, baby, baby
You're everything I need, yeah

I really need it baby, hey girl
I'll give you what you want, baby, baby, hey
If you want it, you can have it, baby, it's yours

Listen, I want you right here in my world
Here in my life, here in my soul
I want the world to know that I need you
Baby, I believe you, girl, I'll never deceive you

Share my life, baby
Share my life, baby
Share my life, baby
Share my life, girl
Share my life, baby

Hope You Enjoy It! Please Rate

Thanks,

Mante'301
Добавлено: 15.10.2013
Вам также может быть интересно:
Другие материалы по этой песне:
  • Аккорды и текст

Страница создана 15.10.2013
http://primanota.ru/kem/share-my-life-chords.htm
Привет, Гость.
Предлагаем пройти революционный курс по гитаре.
Подарок от PrimaNota.Ru, забирай!