PrimaNota.ru - самый крупный в мире бесплатный архив песенных текстов, аккордов, табулатур и нот


Kelly Valleau - Radioactive - таба, видео

Регистрация Запомнить меня
Войти через:  Facebook Google Twitter Vk Yandex Mail.ru

Kelly Valleau - Radioactive - таба, видео

Печатать
Просмотров: 417
Уроки эстрадного вокала в Санкт-Петербурге
Capo 2
INTRO

e--------------------------------0-(0)----------|
B---------1-----------3------------------3-(3)--|
G--2-0-2------(2)-0-2----(2)-0-2-------2--------|
D-----------------------------------------------|
A--0-----------0----------3------------3--------|
E-----------------------------------------------|
                                                                        X2
e-----------------------------------------------|
B---------1----------3----------1-(1)-----------|
G--2-0-2-----(2)-0-2----(2)-0-2-------0-2-(2)---|
D-----------------------------------------------|
A------------------------0------------0---------|
E--3----------3---------------------------------|

e----|-----|
B-1--|-(1)-|
G-2--|-(2)-|
D-2--|-(2)-|
A----|-----|
E----|-----|
VERSE

e----------0-0-----------0-0--------------------------|
B--------------3-------------3--------0-0-1-00-1-0----|
G--2-2------------0-0-----------0-0----------------2--|
D-------2--------------2------------0-----------------|
A--0-0------------3-3------------------------------0--|
E-------------------------------3-3-------------------|
   . .            . .           . .

e---------0-0-------------------x-----------|
B-------------3-----------------x-----------|
G----2-----------0-0----000-0-0-x---BREATH--|
D-------2-------------2---------x-----------|
A----0-----------3-3------------x-----------|
E---------------------------3-3-x-----------|
     .

e---------0-0-----------0-0--------------------------|
B-------------3-------------3-------0-0-1-00-1-0-----|
G--2-2-----------0-0----------0-0----------------2-0-|
D-------2-------------2-----------0------------------|
A--0-0-----------3-3-------------------------0-------|
E-----------------------------3-3--------------------|

e---------0-0-------------------x---------|
B-------------3-----------------x--0----x-|
G--2-2-----------0-0----000-0-0-x----2--x-|
D-------2-------------2---------x-------x-|
A--0-0-----------3-3------------x-------x-|
E---------------------------3-3-x---------|
CHORUS

e-------------5-5-5-3-3-0---3-3-3-3-2-2----|
B----------5--------1-------3-------3---3--|
G----------5--------0-------0-------2------|
D-2/7-7-7--7--------2-------0--------------|
A-------------------3-------2--------------|
E---------------------------3--------------|

e-------------------------------3-------------------------|
B--3-1-3-1-3------1--3-1-3------3-1-3-1-3------1-------1--|
G--2---------2p0--0--------2p0--0---------2p0--2-2-2-2----|
D--2--------------2-------------0--------------2----------|
A-----------------3-------------2-------------------------|
E-------------------------------3-------------------------|

e-----0-------------0----------3-3-3-3-3-2--2-2-2-2-2-0--|
B--1----3-1-3-----1---3-1-3----3------------3------------|
G--2----------2p0-0---------2--0------------2------------|
D--2--------------2------------0-------------------------|
A-----------------3------------2-------------------------|
E------------------------------3-------------------------|

e-----0-------------0----------3-3-3-3-3-2--x-2-2-2-2-0--|
B--1----3-1-3-----1---3-1-3----3------------x------------|
G--2----------2p0-0---------2--0------------x------------|
D--2--------------2------------0-------------------------|
A-----------------3------------2-------------------------|
E------------------------------3-------------------------|
VERSE 2

e----------0-0-----------0-0--------------------------|
B--------------3-------------3--------0-0-1-00-1-0----|
G--2-2------------0-0-----------0-0----------------2--|
D-------2--------------2------------0-----------------|
A--0-0------------3-3------------------------------0--|
E-------------------------------3-3-------------------|
   . .            . .           . .

e---------0-0-------------------x--------------|
B-------------3-----------------x--0---x-----0-|
G----2-----------0-0----000-0-0-x----2-x---2---|
D-------2-------------2---------x--------0-----|
A----0-----------3-3------------x--------------|
E---------------------------3-3-x--------------|
     .

e---------0-0-----------0-0--------------------------|
B-------------3-------------3-------0-0-1-00-1-0-----|
G--2-2-----------0-0----------0-0----------------2-0-|
D-------2-------------2-----------0------------------|
A--0-0-----------3-3-------------------------0-------|
E-----------------------------3-3--------------------|

e---------0-0-------------------x---------|
B-------------3-----------------x--0----x-|
G--2-2-----------0-0----000-0-0-x----2--x-|
D-------2-------------2---------x-------x-|
A--0-0-----------3-3------------x-------x-|
E---------------------------3-3-x---------|
CHORUS

e-------------5-5-5-3-3-0---3-3-3-3-2-2----|
B----------5--------1-------3-------3---3--|
G----------5--------0-------0-------2------|
D-2/7-7-7--7--------2-------0--------------|
A-------------------3-------2--------------|
E---------------------------3--------------|

e-------------------------------3-------------------------|
B--3-1-3-1-3------1--3-1-3------3-1-3-1-3------1-------1--|
G--2---------2p0--0--------2p0--0---------2p0--2-2-2-2----|
D--2--------------2-------------0--------------2----------|
A-----------------3-------------2-------------------------|
E-------------------------------3-------------------------|

e-----0-------------0----------3-3-3-3-3-2--2-2-2-2-2-0--|
B--1----3-1-3-----1---3-1-3----3------------3------------|
G--2----------2p0-0---------2--0------------2------------|
D--2--------------2------------0-------------------------|
A-----------------3------------2-------------------------|
E------------------------------3-------------------------|

e-----0-------------0----------3-3-3-3-3-2--x-2-2-2-2-0--|
B--1----3-1-3-----1---3-1-3----3------------x------------|
G--2----------2p0-0---------2--0------------x------------|
D--2--------------2------------0-------------------------|
A-----------------3------------2-------------------------|
E------------------------------3-------------------------|
VERSE 2

e----------0-0-----------0-0--------------------------|
B--------------3-------------3--------0-0-1-00-1-0----|
G--2-2------------0-0-----------0-0----------------2--|
D-------2--------------2------------0-----------------|
A--0-0------------3-3------------------------------0--|
E-------------------------------3-3-------------------|
   . .            . .           . .

e---------0-0-------------------x--------------|
B-------------3-----------------x--0---x-----0-|
G----2-----------0-0----000-0-0-x----2-x---2---|
D-------2-------------2---------x--------0-----|
A----0-----------3-3------------x--------------|
E---------------------------3-3-x--------------|
     .

e---------0-0-----------0-0--------------------------|
B-------------3-------------3-------0-0-1-00-1-0-----|
G--2-2-----------0-0----------0-0----------------2-0-|
D-------2-------------2-----------0------------------|
A--0-0-----------3-3-------------------------0-------|
E-----------------------------3-3--------------------|

e---------0-0-------------------x---------|
B-------------3-----------------x--0----x-|
G--2-2-----------0-0----000-0-0-x----2--x-|
D-------2-------------2---------x-------x-|
A--0-0-----------3-3------------x-------x-|
E---------------------------3-3-x---------|
CHORUS

e-------------5-5-5-3-3-0---3-3-3-3-2-2----|
B----------5--------1-------3-------3---3--|
G----------5--------0-------0-------2------|
D-2/7-7-7--7--------2-------0--------------|
A-------------------3-------2--------------|
E---------------------------3--------------|

e-------------------------------3-------------------------|
B--3-1-3-1-3------1--3-1-3------3-1-3-1-3------1-------1--|
G--2---------2p0--0--------2p0--0---------2p0--2-2-2-2----|
D--2--------------2-------------0--------------2----------|
A-----------------3-------------2-------------------------|
E-------------------------------3-------------------------|

e-----0-------------0----------3-3-3-3-3-2--2-2-2-2-2-0--|
B--1----3-1-3-----1---3-1-3----3------------3------------|
G--2----------2p0-0---------2--0------------2------------|
D--2--------------2------------0-------------------------|
A-----------------3------------2-------------------------|
E------------------------------3-------------------------|

e-----0-------------0----------3-3-3-3-3-2--x-2-2-2-2-0--|
B--1----3-1-3-----1---3-1-3----3------------x------------|
G--2----------2p0-0---------2--0------------x------------|
D--2--------------2------------0-------------------------|
A-----------------3------------2-------------------------|
E------------------------------3-------------------------|
BRIDGE

e---------------------------------------|
B--1-------1-3---0----------0-----------|
G--2-----2--------------------/4-2--0-2-|
D--2---2------------------0-------------| x2
A--0-----------0-3-(3)------------------|
E---------------------------------------|
CHORUS

e-------------5-5-5-3-3-0---3-3-3-3-2-2----|
B----------5--------1-------3-------3---3--|
G----------5--------0-------0-------2------|
D-2/7-7-7--7--------2-------0--------------|
A-------------------3-------2--------------|
E---------------------------3--------------|

e-------------------------------3-------------------------|
B--3-1-3-1-3------1--3-1-3------3-1-3-1-3------1-------1--|
G--2---------2p0--0--------2p0--0---------2p0--2-2-2-2----|
D--2--------------2-------------0--------------2----------|
A-----------------3-------------2-------------------------|
E-------------------------------3-------------------------|

e-----0-------------0----------3-3-3-3-3-2--2-2-2-2-2-0--|
B--1----3-1-3-----1---3-1-3----3------------3------------|
G--2----------2p0-0---------2--0------------2------------|
D--2--------------2------------0-------------------------|
A-----------------3------------2-------------------------|
E------------------------------3-------------------------|

e-----0-------------0----------3-3-3-3-3-2--x-2-2-2-2-0--|
B--1----3-1-3-----1---3-1-3----3------------x------------|
G--2----------2p0-0---------2--0------------x------------|
D--2--------------2------------0-------------------------|
A-----------------3------------2-------------------------|
E------------------------------3-------------------------|
Добавлено: 26.06.2016
Другие материалы по этой песне:
  • Аккорды и текст

Страница создана 26.06.2016
http://primanota.ru/kelly-valleau/radioactive-chords.htm
Привет, Гость.
Предлагаем пройти революционный курс по гитаре.
Подарок от PrimaNota.Ru, забирай!