PrimaNota.ru - самый крупный в мире бесплатный архив песенных текстов, аккордов, табулатур и нот


Kells - Furytale - таба, видео

Регистрация Запомнить меня
Войти через:  Facebook Google Twitter Vk Yandex Mail.ru

Kells - Furytale - таба, видео

Печатать
Просмотров: 98
-------------------------------------------------------------------------------
                             FURYTALE - Kells
-------------------------------------------------------------------------------

Also known as Se Taire
Tabbed by: Kiera
E-mail: evanescenceguitarist@yahoo.com
Kells website: http://kellsofficial.com/

Tuning: A# standard (is actually played on a 7 string)

Intro
a#|-------------------------------------------------------------------------|
F |-------------------------------------------------------------------------|
C#|-------------------------------------------------------------------------|
G#|-------------------------------------------------------------------------|
D#|---10---------9-----------9----------7---------10---------10-------------|
A#|-7----------7----------10----------5---------7----------7----------------|


a#|--------------------------------------------------------------|
F |--------------------------------------------------------------|
C#|--------------------------------------------------------------|
G#|--------------------------------------------------------------|
D#|-5-5-5-5-5-5-5-5--12-12-12-12---11-11-11-11-11-11-11-11-------|
A#|-3-3-3-3-3-3-3-3--10-10-10-10---9--9--9--9--9--9--9--9--------|
PM ________________


Chorus (ish)
a#|-------------------------------------------------------------------------|
F |-------------------------------------------------------------------------|
C#|-------------------------------------------------------------------------|
G#|-------------------------------------------------------------------------|
D#|---10-----10---10-----9-----9---9------9-------9----9------7-----7---7---|
A#|-7----7-7----7----7-7---7-7---7---7-10---10-10---10---10-5---5-5---5---5-|
PM  _    ___    _    ___   ___   _   ____   _____   __   ____   ___   _   _


a#|-------------------------------------------------------------------------------|
F |-------------------------------------------------------------------------------|
C#|-------------------------------------------------------------------------------|
G#|-------------------------------------------------------------------------------|
D#|---10-----10---10-----10-----10---10---5-5-5-5-5-5-5-5-12-12-12-12-11-11-11-11-|
A#|-7----7-7----7----7-7----7-7----7----7-3-3-3-3-3-3-3-3-10-10-10-10-9--9--9--9--|
PM ___   ___    _    ___    ___    _    _


Verse 
   x8                                End 1 x4
a#|---------------------------------|---------------------------------------|
F |---------------------------------|---------------------------------------|
C#|---------------------------------|-----------------------------4---------|
G#|---------------------------------|-------------------------5h7-----------|
D#|---------------------------------|----------------5h7--------------------|
A#|-5h7-7-7-7-7-7-7-5h7-7-7-7-7-7-7-|-7-7-7-7-7-7-7-7-----7-7-------7-------|
PM      ___________     ___________   _______________     ___       _

   End 2 x3
a#|------------------------------------|
F |------------------------------------|
C#|---------4--------------------------|
G#|-----5-----------------9------------|
D#|-5----------------7-----------------|
A#|-------------7----------------------|

End 3 (last repeat)
a#|----------------------------------------|
F |----------------------------------------|
C#|----------------------------------------|
G#|-11----------------11---------\---------|
D#|-9---------9---9---9----------\---------|
A#|-9---------9---9---9----------\---------|
PM            _____


Chorus x2
Verse

Different End 3
a#|-----------------------------------------------|
F |-----------------------------------------------|
C#|-----------------------------------------------|
G#|-11--------------------------------------------|
D#|-9------------9---9-9--9-9--9--9--9-9----------|
A#|-9------------9---9-9--9-9--9--9--9-9----------|
PM               _______________________


Chorus x2

Break
a#|------------------------------------------------------------|
F |------------------------------------------------------------|
C#|------------------------------------------------------------|
G#|------------------------------------------------------------|
D#|--------------------------------------3--3--3--------5------|
A#|-2-2-------2-2-2--------2-2-2------------------3--2-----3---|


a#|------------------------------------------------------------|
F |------------------------------------------------------------|
C#|------------------------------------------------------------|
G#|------------------------------------------------------------|
D#|----------------------------------3--3--3--------5----------|
A#|-2-2-------2-2--------2-2------------------3--2-----3-------|


Bridge x4
a#|--------------------------------------------------------|
F |--------------------------------------------------------|
C#|--------------------------------------------------------|
G#|---------------------------------------------4h5--------|
D#|----------------------------------------5h6-------------|
A#|-2--2-2--2-2--2--2-2--2-2--2--2-2--2-2------------------|
PM ______________________________________

a#|-------------------------------------------------------|
F |-------------------------------------------------------|
C#|-------------------------------------------------------|
G#|-------------------------------------------------------|
D#|-----------------------------3--3--3--------5----------|
A#|-2--2-2--2-2--2--2-2--2-2-------------3--2-----3-------|
PM _________________________


Break 2
a#|-------------------------------------------------------------------------|
F |-------------------------------------------------------------------------|
C#|-------------------------------------------------------------------------|
G#|-------------------------------------------------------------------------|
D#|------------------------2------------------------------------------------|
A#|-2----2----2----2-2--2--0------------------------------------------------|
  |Clean
a#|-------------------------------------------------------------------------|
F |-------------------------------------------------------------------------|
C#|--------------------------------12--------11---------11-------9----------|
G#|------------------------------9---------9---------12--------7------------|
D#|-------------------------------------------------------------------------|
A#|-------------------------------------------------------------------------|


a#|-------------------------------------------------------------------------------|
F |-------------------------------------------------------------------------------|
C#|-------------------------------------------------------------------------------|
G#|-------------------------------------------------------------------------------|
D#|---10-----10---10-----10-----10---10---5-5-5-5-5-5-5-5-12-12-12-12-11-11-11-11-|
A#|-7----7-7----7----7-7----7-7----7----7-3-3-3-3-3-3-3-3-10-10-10-10-9--9--9--9--|
PM ___   ___    _    ___    ___    _    _
  |
a#|-------------------------------------------------------------------------|
F |-------------------------------------------------------------------------|
C#|-12-12-12-12-12-12-12-12-/14-14-14-14-14-14-14-14-14-14-14-14-14-14-14-14|
G#|-------------------------------------------------------------------------|
D#|-------------------------------------------------------------------------|
A#|-------------------------------------------------------------------------|


Chorus x2
a#|-------------------------------------------------------------------------|
F |-------------------------------------------------------------------------|
C#|-------------------------------------------------------------------------|
G#|-------------------------------------------------------------------------|
D#|-10-(x8)-9-(x8)-9--(x8)-7-(x8)-10-(x16)-5-(x8)-12-(x4)-11-(x4)-----------|
A#|-7-------7------10------5------7--------3------10------9-----------------|
  |
a#|-------------------------------------------------------------------------|
F |-15-(x8)-----------------------------------------------------------------|
C#|---------12-(x16)--------------12-(x8)-14(x16)---------------------------|
G#|------------------------14-(x8)------------------------------------------|
D#|-------------------------------------------------------------------------|
A#|-------------------------------------------------------------------------|


Outro
a#|-------------------------------------------------------------------------|
F |-------------------------------------------------------------------------|
C#|-------------------------------------------------------------------------|
G#|-------------------------------------------------------------------------|
D#|-12-12-12-11---\------12-12-12-11---\-------12-12-12-11--11--9---------\-|
A#|-10-10-10-9----\------10-10-10-9----\-------10-10-10-9---9---7---------\-|


END

Thanks for looking! 
Be sure to check out my GP of this song as well
Will pick another Kells song to do, if anything, you can request a song and 
I'll do it. :)
************************************

| /   slide up
| \   slide down
| h   hammer-on
| p   pull-off
| ~   vibrato
| +   harmonic
| x   Mute note
| b   Bend
| pb  Pre-bend
| br  Bend release
| pbr Pre-bend release
| brb Bend release bend

************************************
Добавлено: 09.11.2013
Вам также может быть интересно:
Другие материалы по этой песне:

Страница создана 01.07.2013
http://primanota.ru/kells/furytale-chords.htm
Привет, Гость.
Предлагаем пройти революционный курс по гитаре.
Подарок от PrimaNota.Ru, забирай!