PrimaNota.ru - самый крупный в мире бесплатный архив песенных текстов, аккордов, табулатур и нот


Kellermensch - Army Ants - таба, видео

Регистрация Запомнить меня
Войти через:  Facebook Google Twitter Vk Yandex Mail.ru

Kellermensch - Army Ants - таба, видео

Печатать
Просмотров: 118
                                   Kellermensch- Army Ants

Tab By: Mathias I Knudsen

Song Link: http://www.youtube.com/watch?v=onk8-HaNE24



Intro/Verse

  Listen to the song to get the rythem.
e|-----------------------------------------------|
B|--2-2-2----------------------------------------|
G|--2-2-2-4--4-4-7-7-7---------------------------|
D|--2-2-2-4--4-4-7-7-7-5-5-5-5-------------------|
A|--0-0-0-2--2-2-5-5-5-5-5-5-5-------------------|
E|---------------------3-3-3-3-------------------|

                    Or

e:--------------------------------------------------------|
B:--------------------------------------------------------|
G:-4-4-4-6--6-6-9-9-9-------------------------------------|
D:-4-4-4-6--4-4-9-9-9-7-7-7-7-----------------------------|
A:-2-2-2-4--4-4-7-7-7-7-7-7-7-----------------------------|
E:--------------------5-5-5-5-----------------------------|
Добавлено: 14.04.2012
Другие материалы по этой песне:
  • Аккорды и текст

Страница создана 14.04.2012
http://primanota.ru/kellermensch/army-ants-chords.htm
Привет, Гость.
Предлагаем пройти революционный курс по гитаре.
Подарок от PrimaNota.Ru, забирай!