PrimaNota.ru - самый крупный в мире бесплатный архив песенных текстов, аккордов, табулатур и нот


Kele Goodwin - Free - таба, видео

Регистрация Запомнить меня
Войти через:  Facebook Google Twitter Vk Yandex Mail.ru

Kele Goodwin - Free - таба, видео

Печатать
Просмотров: 66
Tabbed by Mario Carlo Pittalis (mariocarlo2000@hotmail.com)



Acoustic or Classical Guitar, (CAPO ON 2ND FRET)

( ) = ghost note



Intro

  Am
E|-------------|-------------|
B|-----1---1---|-----1---1---|
G|--(2)--2---2-|--(2)--2---2-|   x 4
D|-------------|-2-----------|
A|-0-----------|-------------|
E|-------------|-------------|



Part I (Repeat x 3)

  Am                          C
E|-------------|-------------|-------------|-------------|
B|-----1---1---|-----1---1---|-----1---1---|-----1---1---|
G|--(2)--2---2-|--(2)--2---2-|--(0)--0---0-|--(0)--0---0-|
D|-------------|-2-----------|-------------|-2-----------|
A|-0-----------|-------------|-3-----------|-------------|
E|-------------|-------------|-------------|-------------|

  G                           F
E|-------------|-------------|-------------|-------------|
B|-----0---0---|-----0---0---|-----1---1---|-----1---1---|
G|--(0)--0---0-|--(0)--0---0-|--(2)--2---2-|--(2)--2---0-|
D|-------------|-0-----------|-------------|-3-----------|
A|-------------|-------------|-------------|-------------|
E|-3-----------|-------------|-1-----------|-------------|

  Am                          C
E|-------------|-------------|-------------|-------------|
B|-----1---1---|-----1---1---|-----1---1---|-----1---1---|
G|--(2)--2---2-|--(2)--2---2-|--(0)--0---0-|--(0)--0---0-|
D|-------------|-2-----------|-------------|-2-----------|
A|-0-----------|-------------|-3-----------|-------------|
E|-------------|-------------|-------------|-------------|

  G                           F
E|-------------|-------------|-------------|-------------|
B|-----0---0---|-----0---0---|-----1---1---|-----1---1---|
G|--(0)--0---0-|--(0)--0---0-|--(2)--2---2-|--(2)--2---0-|
D|-------------|-0-----------|-------------|-3-----------|
A|-------------|-------------|-------------|-------------|
E|-3-----------|-------------|-1-----------|-------------|

  F
E|-------------|-------------|
B|-----1---1---|-----1---0---|
G|--(2)--2---2-|--(2)--2---0-|
D|-------------|-3-----------|
A|-------------|-------------|
E|-1-----------|-------------|


Part II (Repeat x 4)

  C                           G
E|-------------|-------------|-------------|-------------|
B|-----1---1---|-----1---1---|-----3---3---|-----3---3---|
G|--(0)--0---0-|--(0)--0---0-|--(0)--0---0-|--(0)--0---0-|
D|-------------|-2-----------|-------------|-0-----------|
A|-3-----------|-------------|-------------|-------------|
E|-------------|-------------|-3-----------|-------------|

  Am                          F
E|-------------|-------------|-------------|-------------|
B|-----1---1---|-----1---1---|-----1---1---|-----1---1---|
G|--(2)--2---2-|--(2)--2---2-|--(2)--2---2-|--(2)--2---2-|
D|-------------|-0-----------|-------------|-3-----------|
A|-0-----------|-------------|-------------|-------------|
E|-------------|-------------|-1-----------|-------------|

On the fourth, play like this:
  C                           G
E|-------------|-------------|-------------|-------------|
B|-----1---1---|-----1---1---|-----3---3---|-----3---3---|
G|--(0)--0---0-|--(0)--0---0-|--(0)--0---0-|--(0)--0---0-|
D|-------------|-2-----------|-------------|-0-----------|
A|-3-----------|-------------|-------------|-------------|
E|-------------|-------------|-3-----------|-------------|

  Am                          Am
E|-------------|-------------|-------------|-------------|
B|-----1---1---|-----1---1---|-----1---1---|-----1---1---|
G|--(2)--2---2-|--(2)--2---2-|--(2)--2---2-|--(2)--2---2-|
D|-------------|-0-----------|-------------|-0-----------|
A|-0-----------|-------------|-0-----------|-------------|
E|-------------|-------------|-------------|-------------|

  F                           F
E|-------------|-------------|-------------|-------------|
B|-----1---1---|-----1---1---|-----1---1---|-----1---1---|
G|--(2)--2---2-|--(2)--2---1-|--(2)--2---2-|--(2)--2---2-|
D|-------------|-3-----------|-------------|-------------|
A|-------------|-------------|-3-----------|-------------|
E|-1-----------|-------------|-------------|-1-----------|

  F                           F
E|-------------|-------------|-------------|-------------|
B|-----1---1---|-----1---1---|-----1---1---|-----1---1---|
G|--(2)--2---2-|--(2)--2---2-|--(2)--2---2-|--(2)--2---2-|
D|-------------|-3-----------|-------------|-3-----------|
A|-------------|-------------|-3-----------|-------------|
E|-1-----------|-------------|-------------|-------------|

  F
E|-------------|-------------|
B|-----1---1---|-----1---0---|
G|--(2)--2---2-|--(2)--2---0-|
D|-------------|-3-----------|
A|-------------|-------------|
E|-1-----------|-------------|


Repeat Part I & Part II then...

Part III ('la la la' etc.). Same as Part II but on the fourth repeat, play like this:

  C                           G
E|-------------|-------------|-------------|-------------|
B|-----1---1---|-----1---1---|-----3---3---|-----3---3---|
G|--(0)--0---0-|--(0)--0---0-|--(0)--0---0-|--(0)--0---0-|
D|-------------|-2-----------|-------------|-0-----------|
A|-3-----------|-------------|-------------|-------------|
E|-------------|-------------|-3-----------|-------------|

  Am                          F
E|-------------|-------------|-------------|-------------|
B|-----1---1---|-----1---1---|-----1---1---|-----1---1---|
G|--(2)--2---2-|--(2)--2---2-|--(2)--2---2-|--(2)--2---1-|
D|-------------|-0-----------|-------------|-3-----------|
A|-0-----------|-------------|-------------|-------------|
E|-------------|-------------|-1-----------|-------------|

  F                           F
E|-------------|-------------|-------------|-------------|
B|-----1---1---|-----1---1---|-----1---1---|-----1---1---|
G|--(2)--2---2-|--(2)--2---1-|--(2)--2---2-|--(2)--2---2-|
D|-------------|-3-----------|-------------|-3-----------|
A|-------------|-------------|-------------|-------------|
E|-1-----------|-------------|-1-----------|-------------|

  F                           
E|-------------|-------------|
B|-----1---1---|-----1---0---|
G|--(2)--2---2-|--(2)--2---0-|
D|-------------|-3-----------|
A|-------------|-------------|
E|-1-----------|-------------|



Final Part (Same as Part I except for G x 2 and F [only bass] at the end)

  Am                          C
E|-------------|-------------|-------------|-------------|
B|-----1---1---|-----1---1---|-----1---1---|-----1---1---|
G|--(2)--2---2-|--(2)--2---2-|--(0)--0---0-|--(0)--0---0-|
D|-------------|-2-----------|-------------|-2-----------|
A|-0-----------|-------------|-3-----------|-------------|
E|-------------|-------------|-------------|-------------|

  G                           F
E|-------------|-------------|-------------|-------------|
B|-----0---0---|-----0---0---|-----1---1---|-----1---1---|
G|--(0)--0---0-|--(0)--0---0-|--(2)--2---2-|--(2)--2---0-|
D|-------------|-0-----------|-------------|-3-----------|
A|-------------|-------------|-------------|-------------|
E|-3-----------|-------------|-1-----------|-------------|

  Am                          C
E|-------------|-------------|-------------|-------------|
B|-----1---1---|-----1---1---|-----1---1---|-----1---1---|
G|--(2)--2---2-|--(2)--2---2-|--(0)--0---0-|--(0)--0---0-|
D|-------------|-2-----------|-------------|-2-----------|
A|-0-----------|-------------|-3-----------|-------------|
E|-------------|-------------|-------------|-------------|

  G                           G
E|-------------|-------------|-------------|-------------|
B|-----0---0---|-----0---0---|-----0---0---|-----0---0---|
G|--(0)--0---0-|--(0)--0---0-|--(0)--0---0-|--(0)--0---0-|
D|-------------|-0-----------|-------------|-0-----------|
A|-------------|-------------|-------------|-------------|
E|-3-----------|-------------|-3-----------|-------------|

  F
E|-------------|
B|-------------|
G|-------------|
D|-------------|
A|-------------|
E|-1-----------|
Добавлено: 03.10.2013
Другие материалы по этой песне:
  • Аккорды и текст

Страница создана 03.10.2013
http://primanota.ru/kele-goodwin/free-chords.htm
Привет, Гость.
Предлагаем пройти революционный курс по гитаре.
Подарок от PrimaNota.Ru, забирай!