PrimaNota.ru - самый крупный в мире бесплатный архив песенных текстов, аккордов, табулатур и нот


Keldian - The Last Frontier - текст песни, таба, видео

Регистрация Запомнить меня
Войти через:  Facebook Google Twitter Vk Yandex Mail.ru

Keldian - The Last Frontier - текст песни, таба, видео

Печатать
Просмотров: 164
Artist: Keldian
Song: The Last Frontier
Album: Journey of Souls
Tabbed by drawnacrol
Tuning: E standard ( E A D G B E )

Keldian Website:
http://www.myspace.com/keldian

Cover Video::
http://www.youtube.com/watch?v=c9EU_YBW1DU

Intro:
|----------------------------------------------------------------------|
|-----9-----8-----6---------------------9-----8-----6------------------|
|--5-----5-----5-----5~~~------------5-----5-----5-----5~~~------------|
|----------------------------------------------------------------------|
|----------------------------------------------------------------------|
|----------------------------------------------------------------------|

|--------------------------------11/13--8--11--------------------------|
|-----9-----8-----6----------------------------11--11b13r11--9--8~~----|
|--6-----6-----6-----6~~~----------------------------------------------|
|----------------------------------------------------------------------|
|----------------------------------------------------------------------|
|----------------------------------------------------------------------|

Verse:
|----------------------------------------------------------------------|
|----------------------------------------------------------------------|
|----------------------------------------------------------------------|
|----------------------------------------------------------------------|
|----------------------------------------------------------------------|
|--1-1-1-1-1-1-1-1-1-1-1-1-1-1-1-1-1-1-1-1-1-1-1-1-1-1-1-1-1-1-1-1-1---|

|----------------------------------------------------------------------|
|----------------------------------------------------------------------|
|----------------------------------------------------------------------|
|----------------------------------------------------------------------|
|-------------------------------------6-6-6-6-6-6-6-6-6-6-6-6-6-6-6-6--|
|--4-4-4-4-4-4-4-4-4-4-4-4-4-4-4-4-4-----------------------------------|

|----------------------------------------------------------------------|
|----------------------------------------------------------------------|
|----------------------------------------------------------------------|
|----------------------------------------------------------------------|
|----------------------------------------------------------------------|
|--1-1-1-1-1-1-1-1-1-1-1-1-1-1-1-1-1-1-1-1-1-1-1-1-1-1-1-1-1-1-1-1-1---|

|----------------------------------------------------------------------|
|----------------------------------------------------------------------|
|----------------------------------------------------------------------|
|----------------------------------------------------------------------|
|-------------------------------------6----\-\-\-\-\-\-\-\-\-\-\--\----|
|--4-4-4-4-4-4-4-4-4-4-4-4-4-4-4-4-4-------\-\-\-Pick Scrape-\-\-\-----|

Chorus:
|----------------------------------------------------------------------|
|----------------------------------------------------------------------|
|----------------------------------------------------------------------|
|----------------------------------------------------------------------|
|--3-3-3-3-3-3-3-3-3-3-3-3-3-3-3-3-6-6-6-6-6-6-6-6-6-6-6-6-6-6-6-6-----|
|--1-1-1-1-1-1-1-1-1-1-1-1-1-1-1-1-4-4-4-4-4-4-4-4-4-4-4-4-4-4-4-4-----|

|----------------------------------------------------------------------|
|----------------------------------------------------------------------|
|----------------------------------------------------------------------|
|----------------------------------------------------------------------|
|--8-8-8-8-8-8-8-8-8-8-8-8-8-8-8-8-6-6-6-6-6-6-6-6-6-6-6-6-6-6-6\------|
|--6-6-6-6-6-6-6-6-6-6-6-6-6-6-6-6-4-4-4-4-4-4-4-4-4-4-4-4-4-4-4\------|

Break:
|----------------------------------------------------------------------|
|-----9-----8-----6---------------------9-----8-----6------------------|
|--5-----5-----5-----5~~~------------5-----5-----5-----5~~~------------|
|----------------------------------------------------------------------|
|----------------------------------------------------------------------|
|----------------------------------------------------------------------|

Repeat Verse x 1
Repeat Chorus x 2

Guitar Solo:
|----------------------------------------------------------------------|
|-------------------9--8--6--------------------------9--8--6-----------|
|--5--6--5-----5-------------8--7----5--6--5-----5------------8--7-----|
|-----------8---------------------------------8------------------------|
|----------------------------------------------------------------------|
|----------------------------------------------------------------------|

|-----------------------------------6----------------------------------|
|-----9-----8-----6-----9-----8--------8--------9--8--6----------------|
|--6-----6-----6-----6-----6-----6-----------5-----------5-------------|
|-----------------------------------------------------------8--6--8----|
|----------------------------------------------------------------------|
|----------------------------------------------------------------------|

|----------------------------------------------------------------------|
|----------------------------------------------------------------------|
|------------------------------------------15~~------------------------|
|--8/10--10---10/11--11/13--13/15--15/17-------------------------------|
|----------------------------------------------------------------------|
|----------------------------------------------------------------------|

|----------------------------------------------------------------------|
|---------------------------------------------------9------9--11-------|
|------------------------------8------8--10--8--10-----10----------8~--|
|---------8------8--10--8--10-----10-----------------------------------|
|--8--11-----11--------------------------------------------------------|
|----------------------------------------------------------------------|

|----------------------------------------------------------------------|
|-11h13p11----11h13p11----11h13p11----11h13p11----11h13p11------11-13~-|
|----------11----------11----------11----------11-----------11---------|
|----------------------------------------------------------------------|
|----------------------------------------------------------------------|
|----------------------------------------------------------------------|

Chorus:
|----------------------------------------------------------------------|
|----------------------------------------------------------------------|
|----------------------------------------------------------------------|
|----------------------------------------------------------------------|
|---------3--------6--------8------10----10------6---------------------|
|--13\-\--1--------4--------6------8-----8-------4---------------------|

Outro:
|----------------------------------------------------------------------|
|-----9-----8-----6---------------------9-----8-----6------------------|
|--5-----5-----5-----5~~~------------5-----5-----5-----5~~~------------|
|----------------------------------------------------------------------|
|----------------------------------------------------------------------|
|----------------------------------------------------------------------|

|--------------------------------11/13--8--11--------------------------|
|-----9-----8-----6----------------------------11--11b13r11--9--8~~-----|
|--6-----6-----6-----6~~~----------------------------------------------|
|----------------------------------------------------------------------|
|----------------------------------------------------------------------|
|----------------------------------------------------------------------|

|----------------------------------------------------------------------|
|-----9-----8-----6---------------------9-----8-----6------------------|
|--5-----5-----5-----5~~~------------5-----5-----5-----5~~~------------|
|----------------------------------------------------------------------|
|----------------------------------------------------------------------|
|----------------------------------------------------------------------|

|--------------------------------11/13--8--11--------------------------|
|-----9-----8-----6----------------------------11--11b13r11--9--8~~----|
|--6-----6-----6-----6~~~----------------------------------------------|
|----------------------------------------------------------------------|
|----------------------------------------------------------------------|
|----------------------------------------------------------------------|

|----------------------------|
|----------------------------|
|----------------------------|
|--6--6--5--6---5--6\--------|
|----------------------------|
|----------------------------|
Добавлено: 12.06.2012
Вам также может быть интересно:
Другие материалы по этой песне:
  • Аккорды и текст

Страница создана 12.06.2012
http://primanota.ru/keldian/the-last-frontier-chords.htm
Привет, Гость.
Предлагаем пройти революционный курс по гитаре.
Подарок от PrimaNota.Ru, забирай!