PrimaNota.ru - самый крупный в мире бесплатный архив песенных текстов, аккордов, табулатур и нот


Kejnu - Introvert - таба

Регистрация Запомнить меня
Войти через:  Facebook Google Twitter Vk Yandex Mail.ru

Kejnu - Introvert - таба

Печатать
Просмотров: 110
KEJNU - Introvert (Induelo, 2006)

transcribed by nuél schoch (mail@kejnu.com)

tuning: Standard, EADGHE

tempo: 120bpm  (changes to 108bpm in some parts)


I N T R O / V E R S E

GTR1:
     A                      Dm
|----------------------------------------|-------------------------------|
|----------------------------------------|-------------------------------|
|•--------------------------------------•|•-----------------------------•|
|•-------------------------0------------•|•------------------0----------•| repeat
|---0-------------------------0----------|---0------------------0--------|
|-----12-12-12-12-12-12-12-------13------|-----9-9-9-9-9-9-9-------8-----|

(last time)
|-----------------------------|
|-----------------------------|
|-----------------------------|
|-------------------0---------|
|---0------------------0------|
|-----7-7-7-7-7-7-7-------6---|

GTR2:
|---------------------------------|-------------------------------|
|-------------------------6-------|-------------------------------|
|•----9-9-9-9-9-9-9-7------------•|•----6-6-6-6-6-6-6-7-----5----•|
|•--7------------------7---------•|•--7------------------7-------•| repeat
|---------------------------------|-------------------------------|
|---------------------------------|-------------------------------|

(last time)
|-----------------------------|
|-----------------------------|
|-----4-4-4-4-4-4-4-7---------|
|---7------------------7-7s8--|
|-----------------------------|
|-----------------------------|


C H O R U S  1

GTR1:                                                             (end of chorus 1) 108bpm
     Am                         Bm                                   Em
|---------------------------------------------------------|       |-----------|-----------|
|----------0-------------0------------0-----------0-------|       |-----------|-----------|
|--------0---0---------0---0--------0---0-------0---0-----|       |-----------|-----------|
|-----10-------10---10-------10---9-------9---9-------9---| 4x    |-----------|-----------|
|---0-------------0---------------------------------------|       |-----------|--7--------|
|-------------------------------7-----------7-------------|       |--0--------|-----------|

GTR2:
|----------------------------------------------------------------------|
|-----------10--------------10---------------8----------------8--------|
|------9----------9----9----------9----11---------11----11---------11--|
|---10---10----10---10---10----10---12----12---12----12----12---12-----|
|----------------------------------------------------------------------|
|----------------------------------------------------------------------|

|-----------------------------------------------------------|     |---------------------|
|-----------10--------------8------------7-----------7------|     |---------7-----------|
|------9----------9----9---------9---9-------9---9-------9--|     |•----9-------9---9--•|
|---10---10----10---10---10---10----------------------------| 2x  |•-------------------•|
|----------------------------------9---9---9---9---9---9----|     |---9---9---9---9-----|
|-----------------------------------------------------------|     |---------------------|


S O L O  1  (intro/verse)

   A                     Dm                       A                             Dm
|-------------------------------------------------------10-------------------------------------|
|-----------------------------------9--10--12p10--12h13----12h13--10--9---------13------9------|
|--9------^---^---^---/------9--10---------------------------------------10--9-------------10--|
|----------------------------------------------------------------------------------------------|
|----------------------------------------------------------------------------------------------|
|----------------------------------------------------------------------------------------------|

            A                     Dm                       A
|----------------------------------------------------------12h17p12----------------------------|
|------------------------------------10-------12-------(14)---------15--14h15p14p12--14--12h14-|
|-9--7--7h9-----------------------------------------(14)---------------------------------------|
|-----------9/11------\------7--7/10----10/12--------------------------------------------------|
|----------------------------------------------------------------------------------------------|
|----------------------------------------------------------------------------------------------|

    Dm                                 A
|--/12p10-----------------------------------|
|----------14p10----------------------------|
|-----------------12--10h12p10--------------|
|-------------------------------14p11--11---|
|-------------------------------------------|
|-------------------------------------------|

V E R S E  2
C H O R U S  2

end of chorus 2 108bpm

GTR1:
   Em
|-----------|-----------|      |--12--| GTR 3
|-----------|-----------|      |--12--| flageolets
|-----------|-----------|      |--12--|
|-----------|-----------|      |------|
|-----------|--7--7--7--| 2x   |------|
|--0--------|-----------|      |------|

GTR2:
|---------------------|
|---------7-----------|
|•----9-------9---9--•|
|•-------------------•| 2x
|---9---9---9---9-----|
|---------------------|


" S L O W   P A R T  /  B R I D G E "  108bpm

part 1: 2x Em Em Em Em  |  A G Em Em  |  D A Em Em  |  C A Em Em |  C D Em Em  |

GTR 1 plays chords
        (Example)
   Em    A    G    Em  Em 
|--0--|--0----3--------0-------|
|--0--|--2----0----------0-----|
|--0--|--2----0----0-------0---|
|--2--|--2----0----2-----------|
|--2--|--0----2----2-----------|
|--0--|-------3----0-----------|

GTR2 always plays this loop            (last time before part 2)                        
|------------------------------------|-------------------------------------|
|------------------------------------|---------------------------0---------|
|------------------0-----------------|------------------0-----------0------|
|--0------------------0--------------|--0------------------0-----------0---|
|----7-7-7-7-7-7-7-------7-----------|----7-7-7-7-7-7-7-------7------------|
|------------------------------------|-------------------------------------|

part 2: 2x |  C Am D B/D  |  Em Em  |

GTR1:
|------------------------------0--------|
|--5-----5-----7-----7------------0-----|
|--5-----5-----7-----7-----0---------0--|
|--5-----5-----7-----7-----2------------| 2x
|--3-----------5-----------2------------|
|--------5-----------7-----0------------|

GTR2:
|--0-----------0-----------------------------------------------------|
|------------------3-------------------------------------------------|
|---------------------0----------------------0-----------------------|
|------------------------2-----------0----------0--------------------|
|----3-3-3-3-3---3-------------0-------9-9-9-------0--------------9--|
|-----------------------------------------------------7-----7s10-----|

|-------------------------------------|
|---------------------------0---------|
|------------------0-----------0------|
|--0------------------0-----------0---|
|----7-7-7-7-7-7-7-------7------------|2x
|-------------------------------------|

S O L O  2  (intro/verse)

|----------------------------------------------------------------------------------------------|
|---------------------------------------------------------------10-------12-------14-\--17p15--|
|--4---^---^---^---2--------------------------7--6-^-^-----------------------------------------|
|-------------------------3--/--6----------7------------7--7/10----10/12----12/14--------------|
|------------------------------------5---------------------------------------------------------|
|----------------------------------------------------------------------------------------------|

|--------------17-------17-------17-------17-------17-------15h14----15h14----15h14----15h14---|
|--14h15/17-------15p14----15p14----15p14----15p14----15p14-------12-------12-------12-------12|
|----------------------------------------------------------------------------------------------|
|----------------------------------------------------------------------------------------------|
|----------------------------------------------------------------------------------------------|
|----------------------------------------------------------------------------------------------|

|--15h14----14p12----14p12----14p12----14p12----14p12----14p12----------12----------12---------|
|--------12-------------------------------------------------------15----------15----------15---|
|-----------------14-------14-------14-------14-------14-------14----14----14----14----14----14|
|----------------------------------------------------------------------------------------------|
|----------------------------------------------------------------------------------------------|
|----------------------------------------------------------------------------------------------|

|--12----------12-12---------12-------------10-------------10-------------10------9p10h9----9--|
|--------15----------14-15----------12-14----------11-14----------11-14------------------10----|
|-----14----14-------------------14-------------14-------------12-------------12---------------|
|----------------------------------------------------------------------------------------------|
|----------------------------------------------------------------------------------------------|
|----------------------------------------------------------------------------------------------|

|---------------------------------------------------------------------------------------16b17--|
|--10----------------12---------14----------15----------17-----------/18-17-15-14-15/17--------|
|-----9----------------------------------------------------------------------------------------|
|-------11h12------------11h12-------12h14-------14h15-------15h17-----------------------------|
|-------------10h12----------------------------------------------------------------------------|
|----------------------------------------------------------------------------------------------|

|-----------------------19--17-16--------------------------------------------------------------|
|--17-15-17-18-17b18--------------18-17-15\14--15-17-------14h15-------------------------------|
|----------------------------------------------------14h15-------14h15-12h14----12-------------|
|----------------------------------------------------------------------------15----14h15-12h14-|
|----------------------------------------------------------------------------------------------|
|----------------------------------------------------------------------------------------------|

|----------------------------------------------------------------------------------------------|
|---------------------------------------------------------------------------10-----------------|
|---------------------------------------------------------------------9h10----------10---------|
|--11h12----11-------------------------------------11---9h11h12-11h12-----------/12------12/15-|
|--------12----12-10h12p10----10---------------------------------------------------------------|
|--------------------------12----12-10h12p10\9-9-----------------------------------------------|

|---------12b13--------------------------------------------------|
|------15----------14-----12-------------------------------------|
|--14--x-----------------------14--------------------------------|
|-----------------------------------15---14--12\11---------------|
|--------------------------------------------------12-12h13r12---|
|----------------------------------------------------------------|

C H O R U S  3
C H O R U S  4  (outro)  only GTR1

last chord

|--0----------|
|---0---------|
|----0--------|
|-----2-------|
|------2------|
|-------0-----|
Добавлено: 11.12.2015
Другие материалы по этой песне:
  • Аккорды и текст

Страница создана 11.12.2015
http://primanota.ru/kejnu/introvert-chords.htm
Привет, Гость.
Предлагаем пройти революционный курс по гитаре.
Подарок от PrimaNota.Ru, забирай!