PrimaNota.ru - самый крупный в мире бесплатный архив песенных текстов, аккордов, табулатур и нот


Keith Urban - Rollercoaster - таба, видео

Регистрация Запомнить меня
Войти через:  Facebook Google Twitter Vk Yandex Mail.ru

Keith Urban - Rollercoaster - таба, видео

Печатать
Просмотров: 73
INTRO


[0:00] to [0:13]


E------3---------3----------------3-----3p1p0-1p0-0-----------------------|
B-----3-6-------3-6~/10br\8------3-6---------3---3-3p1-1------------------|
G--0h5-------0h5--------------0h5---------------------3-3p2p0-------------|
D-------------------------------------------------------------------------|
A-------------------------------------------------------------------------|
E-------------------------------------------------------------11111111b---|

FIRST SECTION OF SONG


[0:13] to [0:40]


E------3---------------------------------------3--------------------------------|
B-----3-6/8-6---------------------------------3-6/8-6---------------------------|
G--0h4-----7-7\5-3-3h4---------------------0h5-----7-7\5-3-3h4------------------|
D-----------------5---5------3----------------------------5---5----4---5----7\--|
A-----------------------3-4-5-5\3-1-1h2-------------------------4/5-5/7-7/9-9\--|
E----------------------------------3---3----------------------------------------|


E---------------------------------------------------------------------3~/--|
B------6---------------------------------------------------------3-5p3~~/--|
G--5/7--7\5-3-5-3b----5p3-3---3h5/\---------------------2-0-2h3h4----------|
D------------5--------5p3-3---3h5/\--------------0-2h3h4-4-----------------|
A------------------1/3---1-1-1------2-0h1-2p0-3p0--------------------------|
E------------------------------------3-------------------------------------|

                                                                           push neck

E------3---------------------------------------3------------------------------------|
B-----3-6/8-6---------------------------------3-6/8-6-------------------------------|
G--0h4-----7-7\5-3-3h4---------------------0h5-----7-7\5-3-3h4----------------7!\/--|
D-----------------5---5------3----------------------------5---5----4---5----7-7!\/--|
A-----------------------3-4-5-5\3-1-1h2-------------------------4/5-5/7-7/9-9-------|
E----------------------------------3---3--------------------------------------------|


E---------------------------------------------------------------------------------|
B------6------5----------------------------------------------------0-5p3-5/8~~~---|
G--5/7--7\5-3-5-3----5p3-3h5-3h5-3h5/\--------------------2-0-2h3h4---------------|
D------------5-------5p3-3h5-3h5-3h5/\-------------0-2h3h4-4----------------------|
A-----------------1/3---1---1---1-------0h1-2p0-3p0-------------------------------|
E--------------------------------------3------------------------------------------|


FIRST INSTRUMENTAL SECTION


[0:40] - [0:53]


E-----------------------------------------------------------------------|
B-------------------------------------------1/3p1---1-------------------|
G------------------------------------------------3p0-3p0-0--------------|
D-------------------1--2--3--3p2p1p0---0----------------3-3-------------|
A--1--2--3--1-1/3-------------------3p0--------------------5-4-3--------|
E------------1--------------------------------------------------6-3\1---|


SECOND SECTION OF SONG


[0:53] to [1:13]

                                                                           push neck

E------3---------------------------------------3------------------------------------|
B-----3-6/8-6---------------------------------3-6/8-6-------------------------------|
G--0h4-----7-7\5-3-3h4---------------------0h5-----7-7\5-3-3h4----------------7!\/--|
D-----------------5---5------3----------------------------5---5----4---5----7-7!\/--|
A-----------------------3-4-5-5\3-1-1h2-------------------------4/5-5/7-7/9-9-------|
E----------------------------------3---3--------------------------------------------|

E------------------3-1-------------------------------------------3tp/15--|
B-----6---------3bh-3-3r-p1--------------------------------------3tp/15--|
G--5bh-5r-p3-3b------------2-5\3-0-0--------------------------2-0--------|
D-----------5-----------------------3p2p0--------------0-2h3h4-4---------|
A----------------------------------------1--0h1-2p0-3p0------------------|
E------------------------------------------3-----------------------------|

E------3---------3-------------------|
B-----3---------3--------------------|
G--0h5-------0h5-----5/7-7-7-7-7~~---|
D------------------------------------|
A------------------------------------|
E------------------------------------|

[1:53] to [END]


E------------------------------------------------------------------------------------------|
B------------------------------------------------------------------------------------------|
G------------------------------------------------------------------------------------------|
D-----0-4p0-5p0-4p0---------0-4p0-5p0-5/7-5p4p0---0-4p0-5p0-4p0---------0-4p0-5p0-5/10-9\--|
A--3/5-5---5---5---2p0-0-3/5-5---5---5---------3/5-5---5---5---2p0-0-3/5-5---5---5---------|
E------------------------------------------------------------------------------------------|


E------------------------------------------------------------------------------------|
B------------------------------------------------------------------------------------|
G------------------------------------------------------------------------------------|
D-----0-4p0-5p0-4p0---------0-4p0-5p0-5/7-5p4p0---4p0-5p0-7p0--9p0--10p0--12p0--14p0-|
A--3/5-5---5---5---2p0-0-3/5-5---5---5---------3/5---7---9---10---12----14----15-----|
E------------------------------------------------------------------------------------|


E-------------------|
B------------15br---|
G-------14-16-------|
D--14/16------------|
A-------------------|
E-------------------|


E------3---------------------------------------3-------------------------------|
B-----3-6/8-6---------------------------------3-6/8-6--------------------------|
G--0h4-----7-7\5-3-3h4---------------------0h5-----7-7\5-3-3h4-----------------|
D-----------------5---5------3----------------------------5---5----4---5----7--|
A-----------------------3-4-5-5\3-1-1h2-------------------------4/5-5/7-7/9-9--|
E----------------------------------3---3---------------------------------------|

                                *see notes at start of section

E---------------------------------3-----3-----3-----3-----3----3-----------|
B--3b-3-2-1------------------------6p3---6p3---6p3---6p3---6p3--6p3-6/8~~--|
G----------3-3-4-5--------------5b----5b----5b----5b----5b----5b-----------|
D-----------------3-4-5----------------------------------------------------|
A----------------------5-4-3-----------------------------------------------|
E---------------------------5/\--------------------------------------------|


E------3---------------------------------------3-------------------------------|
B-----3-6/8-6---------------------------------3-6/8-6--------------------------|
G--0h5-----7-7\5-3-3h4---------------------0h5-----7-7\5-3-3h4-----------------|
D-----------------5---5------3----------------------------5---5----4---5----7--|
A-----------------------3-4-5-5\3-1-1h2-------------------------4/5-5/7-7/9-9--|
E----------------------------------3---3---------------------------------------|

       chicken pickin'

E--5bh-555555555555-5-5-5-5-5-5r-p3-6p3-----10------------------------------|
B----------------------------------5----10bh--10r-8---10--------------------|
G--------------------------------------------------9bh--9r-7---7------------|
D-----------------------------------------------------------7bh-7r-5---3/5--|
A-------------------------------------------------------------------7p5-----|
E---------------------------------------------------------------------------|


E---------------------------------------------------|
B---------------------------------------------------|
G-----7---------------------------------------------|
D--7bh-7r-5---7---------0-----------------------3-5-|
A----------7/9-9\7-5-1/2-2p1p0-------2-x-3-x-5-x----|
E-----------------------------1-3-3-x---------------|

E------3---------3----------------3--------------------------------------------------|
B-----3-6-------3-6~/10br\8------3-6----6/8-6----------------------------------------|
G--0h5-------0h5--------------0h5------------7\5-3--5br-p3-5p3-----------------------|
D---------------------------------------------------------5---5-3-5p3----------------|
A--------------------------------------------------------------------5-4-3-2\1-------|
E-----------------------------------------------------------------------------1--3---|
Добавлено: 06.05.2012
Другие материалы по этой песне:

Страница создана 22.04.2012
http://primanota.ru/keith-urban/rollercoaster-chords.htm
Привет, Гость.
Предлагаем пройти революционный курс по гитаре.
Подарок от PrimaNota.Ru, забирай!