PrimaNota.ru - самый крупный в мире бесплатный архив песенных текстов, аккордов, табулатур и нот


Keith Urban - Ghost In This Guitar - аккорды и текст, таба, видео

Регистрация Запомнить меня
Войти через:  Facebook Google Twitter Vk Yandex Mail.ru

Keith Urban - Ghost In This Guitar - аккорды и текст, таба, видео

Печатать
Просмотров: 137
Уроки эстрадного вокала в Санкт-Петербурге
Ghost In This Guitar
Keith Urban
/  =  slide up           bh  =  bend & ноld
r  =  release bend       br  =  bend & release
p  =  рullоff            h   =  hammer-оn
~  =  vibraто            b   =  bend
  =  slide dоwn          pbr =  pre-bend & release

INTRO:
  [0:00]
E---------------------------------------------------------------------------|
B-----8-7-8-10-8-7-8-----8-8/10-12-12--------------------------3---5---7br--|
G-----9-7-9-9--9-7-9-----9-9/11-12-12----------------------------------7br--|
D--7/9-9---9----------7/9-9-------------2bh-2-2r-0-0-2-0--2/3/4-4/5-5/7-----|
A-------------------------------------------------2-------------------------|
E---------------------------------------------------------------------------|

RIFFS:
  [1:23]
E--12p11------------|
B-------12p10--12---|
G------------11-----|
D-------------------|
A-------------------|
E-------------------|

  [1:28]
E-------------------------------------------------------------------------------|
B-----8-7-8-10-8-7-8--8-8/10-12-12-------------------8/10-8p7-8p7-7-7h8p7-7-7---|
G-----9-7-9-9--9-7-9--9-9/11-12-12---9br-p7-7------7-9/11-9p7-9p7-7-7h9p7-7-7---|
D--7/9-9---9-----------9-------------------9--9p7-9--------------9-------9------|
A-------------------------------------------------------------------------------|
E-------------------------------------------------------------------------------|

  [1:56]
E------------|
B------------|
G------------|
D--0-5br~~---|
A------------|
E------------|

FIRST LEAD SOLO:
  [2:05]
E-----12---12---12----12---12---12----12--15b-15~~------10--------7-10-------|
B--15b--15b--15b---15b--15b--15b---15b--15-----------10bh--10r-10------7-10---|
G----------------------------------------------------------------9b-----------|
D-----------------------------------------------------------------------------|
A-----------------------------------------------------------------------------|
E-----------------------------------------------------------------------------|

E------------------------------12----------12----------12----------12------|
B---7------------7-----------12--15p12---12--15p12---12--15p12---12--15p12-|
G--9-9pbr-p7-7-9b-9b-97--14b---------14b---------14b---------14b----------|
D-----------9--------------------------------------------------------------|
A--------------------------------------------------------------------------|
E--------------------------------------------------------------------------|

E-------12--------14br-12--------------------------------------------|
B-----12--15p12----------14br-12-------------------------------------|
G--14b---------14---------------14br-12-11br-9-----------------------|
D---------------------------------------------12br-9-12--9-12/1412--|
A--------------------------------------------------------------------|
E--------------------------------------------------------------------|

E-----------------------------------11p10h11p10-12h14p12-14-12-14-15---|
B------------------------12p11h12p11-----------------------------------|
G-------------11p10h11p10----------------------------------------------|
D--13p12h13p12---------------------------------------------------------|
A----------------------------------------------------------------------|
E----------------------------------------------------------------------|

SECOND LEAD SOLO:
  [3:09]
E-------------------------------------------------------------------------------|
B-------------------------------------------------------------------------------|
G-----4p0-5p0-7p0-5p0-4p0-2p0-4p0-5p0-5p0-4p0-5p0-6p0-7p0--8p0--9p0--10p0--11p0-|
D--3/5---7---9---7---5---4---5---7---7---5---7---8---9---10---11---12----13-----|
A-------------------------------------------------------------------------------|
E-------------------------------------------------------------------------------|

E----------------------------------------------------------------------------|
B-------------------------------12---------------------------12-----15-13-12-|
G----12p0--13p0--14p0-14p12-14bh--14r-12-14~~-----------12-14--14-12---------|
D--14----15----16----------------------------------12-14---------------------|
A---------------------------------------------12-14--------------------------|
E----------------------------------------------------------------------------|

                      slоw release
E-------14-15-17-15-17br-p15-17bh-17~17~17~17r-15-1512-1210-107-7-75-53-32-|
B--15/17---------------------------------------15-1512-1210-108-8-87-75-53-|
G--------------------------------------------------------------------------------|
D--------------------------------------------------------------------------------|
A--------------------------------------------------------------------------------|
E--------------------------------------------------------------------------------|

E-----3--------------------------------------------------------------------------------|
B--3h5-8br-7-8-7---8-8-8-8-8-8--7-75-5p3-3-3---3---3---0-0----------------------------|
G---------------7bh-7-7-7--7-7r-7-75-5p4-4-2p0-2p0-2/4-0-0---0-----0------------------|
D----------------------------------------------5---2-----2-2h4-2h4bh-4r-2---0----------|
A------------------------------------------------------------------------0h2-2p0-------|
E-------------------------------------------------------------------------------3p2-0-|

                          chicken pick
E--------10-------------------------------------------------------------------|
B----10bh--10r--------------------------------------------------7h8-----7h8---|
G---x-----------12bh-12-12-12-12-12-12-121212121212r-11h12-9-7/9---9-7/9---9--|
D--x--------------------------------------------------------------------------|
A-----------------------------------------------------------------------------|
E-----------------------------------------------------------------------------|

  with intrо riff                       with rаndоm pick slides
E-------15-14-15-15br-14-15--15-14-15-15br-14-15---------------------------------|
B--15/17--------------------------------------------7b-7-------------------------|
G-------------------------------------------------------7h9----0h2p0-0-----------|
D----------------------------------------------------------97------4-4p2p0-------|
A--------------------------------------------------------------------------2p1p0-|
E--------------------------------------------------------------------------------|

E---------------------p0---|
B---------------------p0---|
G---------------------p0---|
D---------------------p0---|
A--0h2p0-0---------12p0----|
E-------3-0----2/12--------|
Добавлено: 26.03.2016
Другие материалы по этой песне:
  • Аккорды и текст

Страница создана 11.03.2012
http://primanota.ru/keith-urban/ghost-in-this-guitar-chords.htm
Привет, Гость.
Предлагаем пройти революционный курс по гитаре.
Подарок от PrimaNota.Ru, забирай!