PrimaNota.ru - самый крупный в мире бесплатный архив песенных текстов, аккордов, табулатур и нот


Keith Richards - Only Found Out Yesterday - таба, видео

Регистрация Запомнить меня
Войти через:  Facebook Google Twitter Vk Yandex Mail.ru

Keith Richards - Only Found Out Yesterday - таба, видео

Печатать
Просмотров: 314
-------------------------------------------------------------------------------
            Only found out Yesterday – Keith Richards                             
-------------------------------------------------------------------------------
Tabbed by: TheRockChanal1
E-mail: keith-miller@web.de     

This is the version ithat should fit to:
YouTube: /watch?v=0t8YMHjjPkk

Tuning: eBGDAE (standard)

opening chord
e|-------|                                                                    
B|---3---|
G|---2---|
D|---0---|
A|---0---|
E|-------|


e|---0-2-3--2-0-|-------------|-0-2-3-3/5-3p2-|----0-----0-2-0-3-2-3/5-3-5/7-|
B|-3------------|-3-3-2-2-2-2-|---------------|---2--3--3--------------------|
G|--------------|-2-2-2-2-2-2-|---------------|--0---2-----------------------|
D|--------------|-------------|---------------|------------------------------|
A|--------------|-0-0-0-0-0-0-|---------------|-0----000~~-------------------|
E|--------------|-------------|---------------|------------------------------|

e|-5-7/8~-5-5~/7-7—-7/5-5/3-2p0----------0-2-3-2p0---------------------------|
B|------------------------------3-2-2--3-----------3/2-------3------3--2--0-2|
G|--------0-0~~0-0--0---0---0---2-2-2--------------2~------2-------4---2--0-3|
D|-------------------------------------------------------0-------2----------0|
A|------------------------------0-0-0--------------0---0---------------0-----|
E|-------------------------------------------------------------4----------3--|

e|---0-2-3-2-0-|-------------|-0-2-3/5-3p2-|-----0-------0-2-0-3-2-3/5-3-5/7-|
B|-3-----------|-3-3-2-2-2-2-|-------------|----2--3----3--------------------|
G|-------------|-2-2-2-2-2-2-|-------------|---0---2-------------------------|
D|-------------|-------------|-------------|---------------------------------|
A|-------------|-0-0-0-0-0-0-|-------------|-0-----000-00--------------------|
E|-------------|-------------|-------------|---------------------------------|

e|-5-7/8-5-5~/7-7—-7/5-5/3-2p0---------0-2-3-2-0-----------------------------|  
B|-----------------------------3-2-2-------------3-2-------3------3--------3-|
G|-------0-0~~0-0--0---0---0---2-2-2-------------2-2-----2-------4-------2---|
D|-----------------------------------------------------0-------2-------0-----|
A|-----------------------------0-0-0-------------0-0----------2------0-------|
E|---------------------------------------------------2-------4---------------|

e|---------------------------------------------------------------------------|
B|-------0-------3-----------------------------------------------------------|
G|-----0--------2------------------------------------------------------------|
D|---0---------0-------------------------------------------------------------|
A|------------0--------------------------------------------------------------|
E|-3---------2---------------------------------------------------------------|

************************************

| /   slide up
| \   slide down
| h   hammer-on
| p   pull-off
| ~   hold note
| +   harmonic
| x   Mute note
| b   Bend
| pb  Pre-bend
| br  Bend release
| pbr Pre-bend release
| brb Bend release bend

************************************
Добавлено: 06.07.2013
Другие материалы по этой песне:
  • Аккорды и текст

Страница создана 06.07.2013
http://primanota.ru/keith-richards/only-found-out-yesterday-chords.htm
Привет, Гость.
Предлагаем пройти революционный курс по гитаре.
Подарок от PrimaNota.Ru, забирай!