PrimaNota.ru - самый крупный в мире бесплатный архив песенных текстов, аккордов, табулатур и нот


Keith Richards - Heartstopper - аккорды и текст, видео

Регистрация Запомнить меня
Войти через:  Facebook Google Twitter Vk Yandex Mail.ru

Keith Richards - Heartstopper - аккорды и текст, видео

Печатать
Просмотров: 91
Уроки эстрадного вокала в Санкт-Петербурге
Heartstopper
Keith Richards
Keith Richards
"Heartstopper"
From the album "Crosseyed Heart" (2015)

Intro:
| Am | G | Am | G |

Verse 1:
Am                         G
My babe don't like me, she loves me just the same
Am                       G
I just can't help it, it goes against the grain

Chorus:
C                     F
But when she holds me something starts anew
C                    F
She forgives me, and I forgive her too
| G | G |

Verse 2:
Am                     G
She's vegetarian, but me, I love my meat
Am                               G
She likes it when it's cool, but I just love the heat

Chorus:
C                     F
But when she holds me something starts anew
C                    F
She forgives me, and I forgive her too
| G | G |

Verse 3:
Am                               G
When we walking down the street, oh it blows their minds
Am                       G
Everybody wants a piece, a piece of mind
Am                             G
Even if I cross the road she's always on the phone
Am                                     G
I don't know who she's talking to, but I've walked home alone

Chorus:
C                     F
But when she holds me something starts anew
C                    F
She forgives me, and I forgive her too

Solo:
|-----5--5--------------------------|-----5--5---------------------------|
|-----5--5-------8s10---10~~~~------|-----5--5-------8s10-10-10-10~~~~---|
|-7b9-------7b9---------------------|-7b9-------7b9----------------------|
|-----------------------------------|------------------------------------|
|-----------------------------------|------------------------------------|
|-----------------------------------|------------------------------------|


|-----5--5-------5-------------10b12--|--12r10-10-8----8----10b12----10-8----8-------|
|-----5--5-------5---//10~~~~---------|-------------10---10---------------10----10~~-|
|-7b9-------7b9-----------------------|----------------------------------------------|
|-------------------------------------|----------------------------------------------|
|-------------------------------------|----------------------------------------------|
|-------------------------------------|----------------------------------------------|

Verse 4:
Am                                G
That bitch don't like me, but she loves me just the same
Am                    G
And when she loves me I don't feel no pain
| G | G |

Am        G
She don't like me, she don't like me... (repeat until fade)
Добавлено: 17.03.2016
Другие материалы по этой песне:
  • Аккорды и текст

Страница создана 17.03.2016
http://primanota.ru/keith-richards/heartstopper-chords.htm
Привет, Гость.
Предлагаем пройти революционный курс по гитаре.
Подарок от PrimaNota.Ru, забирай!