PrimaNota.ru - самый крупный в мире бесплатный архив песенных текстов, аккордов, табулатур и нот


Keith Richards - Deuce And A Quarter - аккорды и текст, видео

Регистрация Запомнить меня
Войти через:  Facebook Google Twitter Vk Yandex Mail.ru

Keith Richards - Deuce And A Quarter - аккорды и текст, видео

Печатать
Просмотров: 123
Deuce And A Quarter
Keith Richards
SONG:   DEUCE AND A QUARTER 
ARTIST: SCOTTY MOORE/DJ FONTANA - FEATURING KEITH RICHARDS 
ALBUM:  ALL THE KING'S MEN 
TAB BY: DON CZARSKI 
E-MAIL: GUITARZAN7@HOTMAIL.COM

                       DEUCE AND A QUARTER 
         SCOTTY MOORE/DJ FONTANA - FEATURING KEITH RICHARDS 

INTRO RIFF: 

    G                           C
E ---------------------------|---------------------------|
B --3--3--3--3----1---0--0---|--8--8--8--8----6---5--5---|
G --4--4--4--4----2---0--0---|--9--9--9--9----7---5--5---|
D ---------------------------|---------------------------|
A ---------------------------|---------------------------|
E ---------------------------|---------------------------|

    D                           G
E ---------------------------|---------------------------|
B --5--5--3--5----7----7-----|--3--3--3--3----1---0--0---|
G --5--5--4--5----7----7-----|--4--4--4--4----2---0--0---|
D ---------------------------|---------------------------|
A ---------------------------|---------------------------|
E ---------------------------|---------------------------|


VERSE: 
(LEVON HELM) 
                     G 
Buy a bottle get to feeling good 
                           C 
World's lookin' like you think it should 
                    D 
Happy hour, Honey everyone's your friend 
                       G 
Closing time shut her down again 


VERSE:
G
Up in the morning and your facing town 
                      C 
Walk the same streets up and down. 
                        D 
A fire burning in your worn out shoes 
                   G 
Every day you got something to prove. 


BREAK: 
                     C 
A curb feelers and fender skirts 
                             G 
Scrub the chrome 'till your elbow hurts 
                   D 
A pinstripes and cherry packs 
                      G 
Grass stains on your second hand slacks. 
                            C 
Keep on bettin' think you gonna win 
                         G 
You can dress it up and try to pretend 
                   D 
A car's a car and that's a fact 
                                G 
A deuce and a quarter ain't no cadillac. 


INSTRUMENTAL: 

    G                           C
E ---------------------------|---------------------------|
B --3--3--3--3----1---0--0---|--8--8--8--8----6---5--5---|
G --4--4--4--4----2---0--0---|--9--9--9--9----7---5--5---|
D ---------------------------|---------------------------|
A ---------------------------|---------------------------|
E ---------------------------|---------------------------|

    D                           G
E ---------------------------|---------------------------|
B --5--5--3--5----7----7-----|--3--3--3--3----1---0--0---|
G --5--5--4--5----7----7-----|--4--4--4--4----2---0--0---|
D ---------------------------|---------------------------|
A ---------------------------|---------------------------|
E ---------------------------|---------------------------|


VERSE: 
(KEITH RICHARDS) 1:15 
                    G
Uncle Johnny has a country act
                   C
His headache is a heart attack 
                       D
Honey bring me down a couple more pills 
                         G
Call the lawyer up and change my will. 


BREAK: 
                    C
Ham sandwich and a glass of tea 
                    G
Lunch is cheap but never free 
                     D
Shaking hands and scratching backs 
                       G
Grease stains on your second hand slacks 

                             C  
Keep on bettin think you're gonna win 
                         G
You can dress it up and try to pretend 
                    D  
A car's a car and that's a fact 
                               G
A deuce and a quarter ain't a cadillac. 


INSTRUMENTAL: 

    G                           C
E ---------------------------|---------------------------|
B --3--3--3--3----1---0--0---|--8--8--8--8----6---5--5---|
G --4--4--4--4----2---0--0---|--9--9--9--9----7---5--5---|
D ---------------------------|---------------------------|
A ---------------------------|---------------------------|
E ---------------------------|---------------------------|

    D                           G
E ---------------------------|---------------------------|
B --5--5--3--5----7----7-----|--3--3--3--3----1---0--0---|
G --5--5--4--5----7----7-----|--4--4--4--4----2---0--0---|
D ---------------------------|---------------------------|
A ---------------------------|---------------------------|
E ---------------------------|---------------------------|


VERSE: 
(LEVON HELM) 2:07 
                   G
Got a date gotta dress with care 
                     C
Wash the gray right out of my hair. 

(KEITH RICHARDS) 2:13 
                   D
Clean the car and when I'm through 
                    G
Wax it up till it looks brand new. 



BREAK: 
(HELM & RICHARDS) 2:19 
                      C
A curb feelers and a fender skirt 
                             G
Scrub the chrome 'till your elbows hurt. 
       
(LEVON HELM)
                 D
Pinstripes and cherry packs 
                      G
Grass stains on your second hand slacks. 

(KEITH RICHARDS) 2:32 
                            C
Keep on bettin' think your gonna win 
                         G
You can dress it up and try to pretend. 
 
(HELM & RICHARDS) 
                     D
A car's a car, and that's a fact 
                                    G
But a Deuce and a quarter ain't no cadillac. 
                    D
A car's a car, and that's a fact 
                                    G
But a Deuce and a quarter ain't no cadillac. 


INSTRUMENTAL:                      
    G                           C
E ---------------------------|---------------------------|
B --3--3--3--3----1---0--0---|--8--8--8--8----6---5--5---|
G --4--4--4--4----2---0--0---|--9--9--9--9----7---5--5---|
D ---------------------------|---------------------------|
A ---------------------------|---------------------------|
E ---------------------------|---------------------------|

    D                           G
E ---------------------------|---------------------------|
B --5--5--3--5----7----7-----|--3--3--3--3----1---0--0---|
G --5--5--4--5----7----7-----|--4--4--4--4----2---0--0---|
D ---------------------------|---------------------------|
A ---------------------------|---------------------------|
E ---------------------------|---------------------------|


    G                       C
E ------------------------|------------------10-------------------|
B ----8-10---8---10b-10b--|---8-10-10b---8------10b-8-10---8-10b--|
G -/9------9---9----------|-9----------9---9-------------9--------|
D ------------------------|---------------------------------------|
A ------------------------|---------------------------------------|
E ------------------------|---------------------------------------|

   D                  G
E ------------------|-------------3---|
B -10-8b-10---8-10--|-------------3---|
G ----------9-------|-5br-3-5-0-3-3---|
D ------------------|-5br-3-5-0-3-----|
A ------------------|-----------------|
E ------------------|-----------------|


OUTRO:
    G                           C
E ---------------------------|---------------------------|
B --3--3--3--3----1---0--0---|--8--8--8--8----6---5--5---|
G --4--4--4--4----2---0--0---|--9--9--9--9----7---5--5---|
D ---------------------------|---------------------------|
A ---------------------------|---------------------------|
E ---------------------------|---------------------------|

    D                           G                 Ab  G
E ---------------------------|--------------------4---3----|
B --5--5--3--5----7----7-----|--3--3--3--3----1---4---3----|
G --5--5--4--5----7----7-----|--4--4--4--4----2---5---4----|
D ---------------------------|--------------------6---5----|
A ---------------------------|--------------------6---5----|
E ---------------------------|--------------------4---3----|
Добавлено: 04.10.2015
Другие материалы по этой песне:
  • Аккорды и текст

Страница создана 04.10.2015
http://primanota.ru/keith-richards/deuce-and-a-quarter-chords.htm
Привет, Гость.
Предлагаем пройти революционный курс по гитаре.
Подарок от PrimaNota.Ru, забирай!