PrimaNota.ru - самый крупный в мире бесплатный архив песенных текстов, аккордов, табулатур и нот


Keith Richards - Cocaine Blues - таба, видео

Регистрация Запомнить меня
Войти через:  Facebook Google Twitter Vk Yandex Mail.ru

Keith Richards - Cocaine Blues - таба, видео

Печатать
Просмотров: 412
Cocaine Blues by Keith Richards. This is anothr Rev. 
Gary Davis song. It has the same sort of loping rhythm as 
"Candy Man". Listen to the song for "bends" and timing.

Intro

|--3--------3-----------3--|-----------0--------------|
|-----1-----------1--------|-----1-----------3--------|
|--------------------------|--------------------------|
|--------2-----------2-----|--------2-----------2-----|
|--3-----------3-----------|--3-----------3-----------|
|--------------------------|-----------------------0--|
                                          
--------------------------|------------------------------|
-----1-----3-----------1--|-----3----------3----------1--|
--------2--------2--------|-------------2-------2--------|
--------3-----------3-----|----------0-------------------|
--------------------------|------------------------3-----|
--1-----------1-----------|--1---------------------------|
                                      
-----------3--------------|--------------------------|
-----1-----------1--------|-----1-----1--------------|
-----------------------0--|-----------------0-----0--|
--------2-----------2-----|--------2-----------0-----|
--3-----------3-----------|--3-----------------------|
--------------------------|--------------3-----------|
                                      
-------------------------|--------------------------|
-----1-----------0-------|-----1-----------1--------|
-----------0-------------|-----------0-----------0--|
--------2-----------0----|--------2-----------2-----|
--3----------------------|--3-----------------------|
--------------3----------|--------------3-----------|

Verse 1 (Play twice)
                                      
-----3-----------3--------|-----3-----------3-------|
-----------1-----------1--|-----------1-------------|
--------------------------|--------0-----------0----|
--------2-----------2-----|-------------------------|
--3-----------3-----------|--3-----------3----------|
--------------------------|-------------------------|
                                          
--------------------------|------------------------------|
-----1-----1-----1-----1--|-----3-------1-----3-------1--|
--------------------------|------------------------------|
--------3-----------3-----|----------0-------------0-----|
--------------------------|----------------3-------------|
--1-----------1-----------|--1---------------------------|
                                     
-----------3-----------3--|--------------------------|
--------------------------|-----1-----1-----0-----0--|
-----0-----------0--------|--------------------------|
--------2-----------2-----|--------2-----------0-----|
--3-----------------------|--------------------------|
--------------3-----------|--3-----------3-----------|
                                      
--------------------------|-----------------------3--|
-----1-----------1--------|-----1-----------1--------|
-----------0-----------0--|-----------0--------------|
--------2-----------0-----|--------2-----------2-----|
--3-----------------------|--3-----------3-----------|
--------------3-----------|--------------------------|

Bridge
                                      
-----0-----0--------------|-----0-----------0--------|
-----------------0-----0--|-----------0-----------0--|
--------------------------|--------------------------|
--------2-----------2-----|--------2-----------0-----|
--------------------------|--------------------------|
--0-----------0-----------|--0-----------0-----------|
                                        
-------------------------|----------------------------|
--------1-------1-----1--|-----1-----1-----3-------1--|
-----2-------------------|----------------------------|
--------3----------------|----------------------0-----|
-------------------3-----|--3-----------3-------------|
--1----------1-----------|--------1-------------------|
                                      
-----------3-----------3--|--------------------------|
--------------------------|-----1-----1-----0-----0--|
-----0-----------0--------|--------------------------|
--------2-----------2-----|--------2-----------0-----|
--3-----------------------|--------------------------|
--------------3-----------|--3-----------3-----------|
                                      
--------------------------|-----------------------3--|
-----1-----------1--------|-----1-----------1--------|
-----------0-----------0--|-----------0--------------|
--------2-----------0-----|--------2-----------2-----|
--3-----------------------|--3-----------3-----------|
--------------3-----------|--------------------------|

Instrumental
                                      
--3--------3-----------3--|-----------0--------------|
-----1-----------1--------|-----1-----------3--------|
--------------------------|--------------------------|
--------2-----------2-----|--------2-----------2-----|
--3-----------3-----------|--3-----------3-----------|
--------------------------|-----------------------0--|
                                      
--------------------------|--------------------------|
-----1-----3-----------1--|--1--1--3--4--5-----0-----|
--------2--------2--------|-----------------5-----2--|
--------3-----------3-----|--------3-----------0-----|
--------------------------|--------------------------|
--1-----------1-----------|--1-----------3-----------|

(second inst goes to end at this point) 
-----------3-----------3--|--------------------------|
--------------------------|-----1-----1-----0-----0--|
-----0-----------0--------|--------------------------|
--------2-----------2-----|--------2-----------0-----|
--3-----------------------|--------------------------|
--------------3-----------|--3-----------3-----------|

--------------------------|-----------------------3--|
-----1-----------1--------|-----1-----------1--------|
-----------0-----------0--|-----------0--------------|
--------2-----------0-----|--------2-----------2-----|
--3-----------------------|--3-----------3-----------|
--------------3-----------|--------------------------|


End (played slower)
-----------3-----------|--------------------|
-----------------------|--------------------|
-----0-----------------|--------------------|
--------2--------------|--------------------|
--3--------------------|-----------3--------|
-----------------------|--3-----------------|
        .                              
--3--------0-----------|--0-----------------|
-----1-----------------|--1-----------------|
-----------------------|--0-----------------|
--------2--------------|--2-----------------|
--3--------------------|--3-----------------|
-----------------------|--------------------|
Добавлено: 10.05.2012
Другие материалы по этой песне:

Страница создана 24.04.2012
http://primanota.ru/keith-richards/cocaine-blues-chords.htm
Привет, Гость.
Предлагаем пройти революционный курс по гитаре.
Подарок от PrimaNota.Ru, забирай!