PrimaNota.ru - самый крупный в мире бесплатный архив песенных текстов, аккордов, табулатур и нот


Keith richards featuring norah jones - Love Hurts - аккорды и текст, видео

Регистрация Запомнить меня
Войти через:  Facebook Google Twitter Vk Yandex Mail.ru

Keith richards featuring norah jones - Love Hurts - аккорды и текст, видео

Печатать
Просмотров: 20
Love Hurts
Keith richards featuring norah jones
SONG:   LOVE HURTS - LIVE
ARTIST: KEITH RICHARDS featuring NORAH JONES
VIDEO:  http://youtu.be/MRfzjdYaFBs
TAB BY: DON CZARSKI
EMAIL:  GUITARZAN7@HOTMAIL.COM


                     LOVE HURTS
         KEITH RICHARDS featuring NORAH JONES


INTRO:
 

   G G G G G  D  Em Em            C C                 D D

E -3----------2--0----------------0-------------------2----
B -0----------3--0----------------1-------------------3----
G -0----------2--0-----0---0-0-0--0---0---0-0---0-----2----
D -0-------------2-----2/5-4-2-0--2---0h2-0-0h2-0----------
A -2-------------2----------------3------------------------
E -3-------------0----------------0----------------3-------



VERSE:
       G
Love hurts,
       Em
Love scars,
       C
Love wounds
     D
And marrs.
      G
Any heart
      Em
Not tough
     C
Or strong 
   D
Enough


CHORUS:
                   G
To take a lot of pain,
 B7            Em
Take a lot of pain.
 Dm              C
Love is like a cloud,
 Am             D
Holds a lot of rain.

 C     G
Love hurts
F      C          G   D
 Oooh oooh love hurts


VERSE:
      G
I'm young,
   Em
I know
    C    D
But even so,
           G
I know a thing 
   Em
Or two,
      C
I've learned 
      D
From you.


CHORUS:
                 G
'Til it hurts a lot
 B7            Em
Really hurts a lot.
 Dm              C
Love is like a flame,
    Am                  D
It burns you when it's hot.

 C     G
Love hurts
F      C          G    G7
 Oooh oooh love hurts


BREAK:
           Em                  B7  Em
You know, Some fools think of happiness,
  B7     Em
Blissfullness,
   B7   Em
Togetherness,
     A
And some fools fool themselves I guess,
     A7                 D
But they're not fooling me.


CHORUS:
   C             G
I know it isn't true,
 B7            Em
Know it isn't true.
 Dm             C
Love is just a lie
 Am               D
Made to make you blue.

 C     G
Love hurts
 F    C          G    D   
Oooh oooh love hurts


INSTRUMENTAL/SOLO:
GUITAR 1: ACOUSTIC GUITAR
G   Em   C   D 


GUITAR 2 - ELECTRIC GUITAR (Thanks Ayreon77 for tabbing this)

     s          s                    s  s      s
e|-17\19-17---10\12-10----s--s---|-12\14/12--12\14-12-12-|
B|-17\19-17---10\12-10--10\12/10-|-12\14/12--12\14-12-12-|
G|-------------------------------|-----------------------|
D|-------------------------------|-----------------------|
A|-------------------------------|-----------------------|
E|-------------------------------|-----------------------|

                    s           s
e|-------------10-10\12----10-10\8---8-|
B|---s---13------------------------8---|
G|-10\12----12----------12-------------|
D|-------------------------------------|
A|-------------------------------------|
E|-------------------------------------|


e|-------------|-----------------|
B|--s--8-8---8-|-10\12--10\12-10-|
G|-5\7-----7-7-|--9\11---9\11--9-|
D|-------------|-----------------|
A|-------------|-----------------|
E|-------------|-----------------|

      G
Love hurts
 F    C          G   
Oooh oooh love hurts


BREAK:
      Em                  B7  Em
Yes, Some fools think of happiness,
  B7     Em
Blissfullness,
   B7   Em
Togetherness,
      A
That some fools fool themselves I guess,
     A7                 D
But they're not fooling me.


CHORUS:
   C             G
I know it isn't true,
 B7            Em
Know it isn't true.
 Dm             C
Love is just a lie
 Am               D
Made to make you blue.

 C     G
Love hurts
 F    C          G   
Oooh oooh love hurts
 F    C          G   
Oooh oooh love hurts


 F   C        G   
Ummm uh love hurts
Добавлено: 01.05.2016
Другие материалы по этой песне:
  • Аккорды и текст

Страница создана 01.05.2016
http://primanota.ru/keith-richards-featuring-norah-jones/love-hurts-chords.htm
Привет, Гость.
Предлагаем пройти революционный курс по гитаре.
Подарок от PrimaNota.Ru, забирай!