PrimaNota.ru - самый крупный в мире бесплатный архив песенных текстов, аккордов, табулатур и нот


Keith Merrow - Andromeda Ii 246 - таба

Регистрация Запомнить меня
Войти через:  Facebook Google Twitter Vk Yandex Mail.ru

Keith Merrow - Andromeda Ii 246 - таба

Печатать
Просмотров: 200
Hello. I'v tabbed 2:46-3:18 part.
Can't say it's 100% accurate, cuz im playin by ear + i don't have a guitar to check it 
out atm, but this should be it. At least im playin it this way.



e||-------------------------------------------------------|
b||-------------------------------------------------------|
G||-------------------------------------------------------|
D||-------------------------------------------------------|
A||-10--x-x--9----------------------9-\7-7---6------------|
E||-7---x-x--7--x-x-------5---------5-\3-3-0-2------------|
A||-7---x-x--7--x-x-0-5-9---9-5-0-5-5-\3-3-0-2------------|


e||-------------------------------------------------------|
b||-------------------------------------------------------|
G||-------------------------------------------------------|
D||-------------------------------------------------------|
A||-10--x-x--9----------------------9-\7-7---9------------|
E||-7---x-x--7--x-x-------5---------5-\3-3-0-5------------|
A||-7---x-x--7--x-x-0-5-9---9-5-0-5-5-\3-3-0-5------------|


e||--------------------------------------------------------|
b||--------------------------------------------------------|
G||--------------------------------------------------------|
D||--------------------------------------------------------|
A||-10--x-x--9----------------------9-\7-7---9---10--------|
E||-7---x-x--7--x-x-------5---------5-\3-3-0-5-0-7---0-0-0-|
A||-7---x-x--7--x-x-0-5-9---9-5-0-5-5-\3-3-0-5-0-7---0-0-0-|

Enjoy. ;)
Feel free to contact me by e-mail: dimereth@o2.pl
Добавлено: 16.11.2013
Другие материалы по этой песне:
  • Аккорды и текст

Страница создана 16.11.2013
http://primanota.ru/keith-merrow/andromeda-ii-246-chords.htm
Привет, Гость.
Предлагаем пройти революционный курс по гитаре.
Подарок от PrimaNota.Ru, забирай!