PrimaNota.ru - самый крупный в мире бесплатный архив песенных текстов, аккордов, табулатур и нот


Keira Knightley - Coming Up Roses - бас-таба, видео

Регистрация Запомнить меня
Войти через:  Facebook Google Twitter Vk Yandex Mail.ru

Keira Knightley - Coming Up Roses - бас-таба, видео

Печатать
Просмотров: 1235
Coming Up Roses by Keira Knightley
From the movie 'Begin Again'

Intro/Main Riff:
   Bbm               F#
G -3--3------3--3------------------------|
D ------3--6------3--6-4--4-----4--4-----|
A --------------------------4-6------4-6-|
E ---------------------------------------|

(Verse)
                 Bbm
When you were asleep
              F#
And I was out walking
                       Bbm
The voices started to speak
                       F#
And they wouldn't stop talking
                      Bbm
There were signs all around
                      F#
It really got my mind racing
                    Bbm
You were right all along
                   F#
Something's gotta change


Chorus:
   Ebm      Db
G -------------------|
D -1-1------3-3------|
A ------1-4------x-3-|
E -------------------|

   Ebm      Db
G -------------------|
D -1-1------3-3----3-|
A ------1-4------3---|
E -------------------|

   Ebm      Db
G -------------------|
D -1-1------3-3/-----|
A ------1-4----------|
E -------------------|

   F#    Fm
G -------------------|
D -4-----------------|
A ---4-6-------------|
E -------------------|


Verse: (use main riff)
                        Bbm
Now we're back on the street
                          F#
Found a song that's worth singing
                         Bbm
The blur that knows a defeat
                          F#
While your victory bell's ringing,
                        Bbm
My whole life's turned around
                        F#
For this thing you keep chasing
                    Bbm
You were right all along
                     F#
It's me who's got to change


Chorus:
   Ebm      Db
G -------------------|
D -1-1------3-3------|
A ------1-4------x-3-|
E -------------------|

   Ebm      Db
G -------------------|
D -1-1------3-3----3-|
A ------1-4------3---|
E -------------------|

   Ebm      Db
G -------------------|
D -1-1------3-3/-----|
A ------1-4----------|
E -------------------|

   F#    Fm
G -------------------|
D -4-----------------|
A ---4-6-------------|
E -------------------|


Bridge:
   F#
G -----------------------|
D -4-4--------4-4--------|
A -----x-4-6------x-4-6/-|
E -----------------------|

   Bbm                Ab                F#
G -3--3-----3--3---------------------------------------|
D ------3-6------3-/6-6-------6--6------4-------4------|
A -----------------------X-6--------4-6----4-6-----4-/-|
E -----------------------------------------------------|

   Bbm               F#               Ab               F#
G -3--3-----3--3-----------------------------------------------------|
D ------3--------3-6-4-4-----4-4------/6--------6------4------4------|
A -----------------------4-6-----4-6------x-6-6----6-4----4-6----4-6-|
E -------------------------------------------------------------------|


Chorus:
   Ebm      Db
G -------------------|
D -1-1------3-3----3-|
A ------1-4------3---|
E -------------------|

   Ebm      Db
G -------------------|
D -1-1------3-3------|
A ------1-4------x-3-|
E -------------------|

   Ebm      Db
G -------------------|
D -1-1------3-3/-----|
A ------1-4----------|
E -------------------|

   F#    Fm
G -------------------|
D -4-----3-----------|
A ---4-6-------------|
E -------------------|


Outro: (repeat x4)
   Bbm               F#
G -3--3------3--3------------------------|
D ------3--6------3--6-4--4-----4--4-----|
A --------------------------4-6------4-6-|
E ---------------------------------------|
Добавлено: 30.07.2015
Другие материалы по этой песне:
  • Аккорды и текст

Страница создана 30.07.2015
http://primanota.ru/keira-knightley/coming-up-roses-chords.htm
Привет, Гость.
Предлагаем пройти революционный курс по гитаре.
Подарок от PrimaNota.Ru, забирай!