PrimaNota.ru - самый крупный в мире бесплатный архив песенных текстов, аккордов, табулатур и нот


Keane - New One - аккорды и текст, бас-таба, видео

Регистрация Запомнить меня
Войти через:  Facebook Google Twitter Vk Yandex Mail.ru

Keane - New One - аккорды и текст, бас-таба, видео

Печатать
Просмотров: 118
Уроки эстрадного вокала в Санкт-Петербурге
New One
Keane
---------------------------------------------------------------------------------------------------
                                          Artist - Keane 
                                         ****************
                                          Song - New One 
                                         ****************
                                     Album - The Theft Of Otto  
                                    ***************************
                                       Tabbed By - Ayreon77
                                      **********************
---------------------------------------------------------------------------------------------------
Tuning = Standard

INTRO
******
e|-------|-------|---------|---------|---------|---------|---------|---------|---------|---------|
B|--h----|--h----|--h------|--h------|--h------|--h------|--h------|--h------|--h------|--h------|
G|-7-9-9-|-7-9-9-|-7-9-9-9-|-7-9-9-9-|-7-9-9-9-|-7-9-9-9-|-7-9-9-9-|-7-9-9-9-|-7-9-9-9-|-7-9-9-9-|
D|-------|-------|---------|---------|---------|---------|---------|---------|---------|---------|
A|-------|-------|---------|---------|---------|---------|---------|---------|---------|---------|
E|-------|-------|---------|---------|---------|---------|---------|---------|---------|---------|


e|---------|---------------|
B|--h------|--h----------s-|
G|-7-9-9-9-|-7-9-9-9--9--\-|
D|---------|---------------|
A|---------|---------------|
E|---------|---------------|

---------------------------
VERSE 1
********
A
   I am the one
     B                   E
I am the only one that I care about
A
She is the one
        B                    A                 C    A
She was always the one to go running around in another land
       E
She go home


---------------------------
VERSE 2
********
A
   I am the one        
     B                     E
I am always the one that I recognize
    A
And you are the one for me
B
Always the one
     A                 C    B
I go running around in another land
     E
I go home too

---------------------------
CHORUS
*******
Play this with the chorus below. Just listen for the timing
e|-------------|-------------|-------------------------------|
B|------9------|------9------|----------------10-10-10-9-9-9-|
G|-9-11---11-9-|-9-11---11-9-|-9-9-9-11-11-11----------------|
D|-------------|-------------|-------------------------------|
A|-------------|-------------|-------------------------------|
E|-------------|-------------|-------------------------------|X2
         A
Will you miss me when I'm gone
          F#m   A    B          E
I'll take on to know that I was so

If you want to run away
          A
I'll take back all that I'll say
          F#m   A    B          E                       
I'll take on to know that I was so

D A

---------------------------
VERSE 3
********
A
   I am the one        
     B                    E
I am always the one to be recognize
A
She was the one
        B                    A                 C    B
She was always the one to go running around in another land
       E
She go home too

---------------------------
CHORUS
*******
Play this with the chorus below. Just listen for the timing
e|-------------|-------------|-------------------------------|
B|------9------|------9------|----------------10-10-10-9-9-9-|
G|-9-11---11-9-|-9-11---11-9-|-9-9-9-11-11-11----------------|
D|-------------|-------------|-------------------------------|
A|-------------|-------------|-------------------------------|
E|-------------|-------------|-------------------------------|X2
         A
Will you miss me when I'm gone
          F#m   A    B          E
I'll take on to know that I was so

Well you want to run away
          A
I'll take back all that I'll say
          F#m   A    B          E                       
I'll take on to know that I was so


---------------------------
BRIDGE
*******
D            C        E
   I saw the poor man take in
D            C        D    E
   I saw the poor man take in

e|-------|-------|---------|---------|---------|---------|---------|---------|---------|---------|
B|--h----|--h----|--h------|--h------|--h------|--h------|--h------|--h------|--h------|--h------|
G|-7-9-9-|-7-9-9-|-7-9-9-9-|-7-9-9-9-|-7-9-9-9-|-7-9-9-9-|-7-9-9-9-|-7-9-9-9-|-7-9-9-9-|-7-9-9-9-|
D|-------|-------|---------|---------|---------|---------|---------|---------|---------|---------|
A|-------|-------|---------|---------|---------|---------|---------|---------|---------|---------|
E|-------|-------|---------|---------|---------|---------|---------|---------|---------|---------|


e|---------|---------|---------|---------------|
B|--h------|--h------|--h------|--h----------s-|
G|-7-9-9-9-|-7-9-9-9-|-7-9-9-9-|-7-9-9-9--9--\-|
D|---------|---------|---------|---------------|
A|---------|---------|---------|---------------|
E|---------|---------|---------|---------------|


---------------------------
SOLO
*****

---------------------------
CHORUS
*******
If you want to run away
          A
I'll take back all that I'll say
          F#m   A    B          E                       
I'll take on to know that I was so

Well she wants to lick away
    A
She wants to runaway
          F#m   A    B          E                       
I'll take on to know that I was so


---------------------------
BRIDGE
*******
D            C        E
   I saw the poor man take in
D            C        D    E
   I saw the poor man take in


A B A


ENJOY.......

Добавлено: 08.08.2015
Другие материалы по этой песне:
  • Аккорды и текст

Страница создана 11.07.2012
http://primanota.ru/keane/new-one-chords.htm
Привет, Гость.
Предлагаем пройти революционный курс по гитаре.
Подарок от PrimaNota.Ru, забирай!