PrimaNota.ru - самый крупный в мире бесплатный архив песенных текстов, аккордов, табулатур и нот


KC & The Sunshine Band - Play That Funky Music White Boy - таба, видео

Регистрация Запомнить меня
Войти через:  Facebook Google Twitter Vk Yandex Mail.ru

KC & The Sunshine Band - Play That Funky Music White Boy - таба, видео

Печатать
Просмотров: 158
Song: Play that funky music white boy
Artist: KC and the Sunshine Band
Tabed by: Tanner McMullen

Ok, I take the blame for all the copyrighted crap, this is all my work,
but only because I couldn't find it anywhere else.

Intro:
                      
A:------------------------------------------------------------------------
B:------------------------------------------------------------------------
G:------------------------------------------------------------------------
D:-----5-3-5--5-5---------------------------------------------------------
A:-----------3-3----------------------------------------------------------
E:-3-3--------------------------------------------------------------------
                                           
   Play same thing through verse until: "dancin, and singin, and movin to
the grovin"

Then you play:

A:--6---6---6---6---6---6---6---6---6---6---6---6-------------------------
B:--6---6---6---6---6---6---6---6---6---6---6---6-------------------------
G:--6---6---6---6---6---6---6---6---6---6---6---6-------------------------
D:------------------------------------------------------------------------
A:------------------------------------------------------------------------
E:------------------------------------------------------------------------

Chorus:  (same thing as verse)

Then when you get to "lay down that boggie and play that funky music till
you die"
You play
                                           
A:------------------------------------------------------------------------
B:------------------------------------------------------------------------
G:------------------------------------------------------------------------
D:--5--3---3--------------------------------------------------------------
A:-------5---5-3-5-5-3---3------------------------------------------------
E:---------------------6---6-3-3------------------------------------------

     
Добавлено: 12.08.2013
Вам также может быть интересно:
Другие материалы по этой песне:
  • Аккорды и текст

Страница создана 12.08.2013
http://primanota.ru/kc-and-the-sunshine-band/play-that-funky-music-white-boy-chords.htm
Привет, Гость.
Предлагаем пройти революционный курс по гитаре.
Подарок от PrimaNota.Ru, забирай!