PrimaNota.ru - самый крупный в мире бесплатный архив песенных текстов, аккордов, табулатур и нот


Kazik - Bourbon Mnie Wypełnia - аккорды и текст, видео

Регистрация Запомнить меня
Войти через:  Facebook Google Twitter Vk Yandex Mail.ru

Kazik - Bourbon Mnie Wypełnia - аккорды и текст, видео

Печатать
Просмотров: 89
Bourbon Mnie Wypełnia
Kazik
Kazik - Bourbon mnie wypełnia
Tabbed by: damienos

Tuning: Standard

[intro]
    Em                                      B                                          Em
e|----------------------------------------|-------------------------------------------|----|
B|----------------------------------------|-------------------------------------------|----|
G|--9-------------------------------------|-------------------------------------------|----|
D|----9-----------------------------------|--------9-7-------12-10-9-7--7-9-9-9-9-7---|----|
A|------10-9--9-9h10-10/12-12-10h12p10----|-9---9------10-9---------------------------|-7--|
E|-------------------------------------11-|-----------------------------------------7-|----|

    Em                                 B                                          Em
e|-----------------------------------|-------------------------------------------|----|
B|-----------------------------------|-------------------------------------------|----|
G|--9--------------------------------|-------------------------------------------|----|
D|----9------------------------------|--------9-7-------12-10-9-7--7-9-9-9-9-7---|----|
A|------10-9--9-9h10-10/12--9h10p9---|-6---6------10-9---------------------------|-7--|
E|---------------------------------7-|-----------------------------------------7-|----|

    Em                                    B                                          Em
e|--------------------------------------|-------------------------------------------|----|
B|--------------------------------------|-------------------------------------------|----|
G|--9-----------------------------------|-------------------------------------------|----|
D|----9---------------------------------|--------9-7-------12-10-9-7--7-9-9-9-9-7---|----|
A|------10-9--9-9h10-10/12-10-9h10p9----|-9---9------10-9---------------------------|-7--|
E|-----------------------------------11-|-----------------------------------------7-|----|

[intro 2] x 5 
Em B
B Em

[chorus]
Am Em B Em
Am Em B Em

[verse 1]
Em
Edna Million strój zabójczy ma
                 B
Lila-róż łagodzi metra huk 
                   B
Za dwa dolce kupię colty dwa 
                    Em
Byle deszcz zapędzi mnie w kozi róg
Em
Mord szesnaście ze mną pije rum 
                    B
Na umrzyka skrzyni, jego mać! 
B
Skąd dwie pary nóg i w głowie szum? 
B                      Em
Bourbon mnie wypełnia. Nie mogę wstać! 

[chorus]
Am                   Em
Hej, ptaszku, mam wiadomość złą: 
     B               Em
Twój dom się pali, a dzieci same są! 
Am                   Em
Hej, ptaszku, mam wiadomość złą: 
     B               Em
Twój dom się pali, a dzieci same są!

[verse 2]
Em
Smutno patrzy zza kubańskich krat 
                 B
Marny uwodziciel cudzych żon
B
Przez księżyca pełnię głupio wpadł,
                     Em
Na ostrzu noża plamy krwi - oto plon
Em
Ktoś butelką po łbie wali mnie
                 B
Nadepnąłem na diabelski chwost
B
Falming brodzi w kryształowym szkle
                           Em
Świat piękniejszy jest niż Brookliński most! 

[chorus]
Am                   Em
Hej, ptaszku, mam wiadomość złą: 
     B               Em
Twój dom się pali, a dzieci same są! 
Am                   Em
Hej, ptaszku, mam wiadomość złą: 
     B               Em
Twój dom się pali, a dzieci same są!

[verse 3]
Em
Żółta pościel zatem to Hong-kong -
                     B
Gdzie prowadzi Wędrowniczek Jaś
B
Wrócę w Karnawale, zdarty long
                  Em
Sto dolarów daj i światło zgaś
Em                  
Mord szesnaście ze mną pije rum
                     B 
Na umrzyka skrzyni - kurwa mać! 
B
Skąd dwie pary nóg i w głowie szum? 
                       Em
Bourbon mnie wypełnia. Nie mogę wstać! 

[chorus] x 6
Am                   Em
Hej, ptaszku, mam wiadomość złą: 
     B               Em
Twój dom się pali, a dzieci same są! 
Am                   Em
Hej, ptaszku, mam wiadomość złą: 
     B               Em
Twój dom się pali, a dzieci same są!

enjoy!
Добавлено: 31.10.2015
Другие материалы по этой песне:
  • Аккорды и текст

Страница создана 31.10.2015
http://primanota.ru/kazik/bourbon-mnie-wypenia-chords.htm
Привет, Гость.
Предлагаем пройти революционный курс по гитаре.
Подарок от PrimaNota.Ru, забирай!