PrimaNota.ru - самый крупный в мире бесплатный архив песенных текстов, аккордов, табулатур и нот


Kay One - Tag Des Jüngstens Gerichts - таба, видео

Регистрация Запомнить меня
Войти через:  Facebook Google Twitter Vk Yandex Mail.ru

Kay One - Tag Des Jüngstens Gerichts - таба, видео

Печатать
Просмотров: 178
-------------------------------------------------------------------------------
                             Tag des jüngsten Gerichts - Kay One
-------------------------------------------------------------------------------
Tabbed by:Gmartar
E-mail:gmartar@outlook.com

Tuning:Standard

e|------------------------------------------------9-11-11b12b11---9--11--9---|
B|-------------------------------------9------9h11-------------------------11|
G|--------------------------------8h10---------------------------------------|
D|----------1h3--1/3--------8h11---------------------------------------------|
A|-1--1h3--------------------------------------------------------------------|
E|---------------------------------------------------------------------------|

e|---------------------------------------------------------------------------|
B|---------------------------------------------------------------------------|
G|--3-------3--3--5--5--6--6--8--8--10--10--11--11--15v----------------------|
D|--3------------------------------------------------------------------------|
A|--1------------------------------------------------------------------------|
E|---------------------------------------------------------------------------|

e|---------------------------------------------------------------------------|
B|---------------------------------------------------------------------------|
G|-----6---------8--------10----------11------10-----------------------------|
D|---8---8---8------8--8------8---8--------8--------6h8----------------------|
A|---------------------------------------------------------------------------|
E|---------------------------------------------------------------------------|

e|------9------------11----------13------------14-------13-------------------|
B|---11----11----11------11---11------11---11------11------------------------|
G|---------------------------------------------------------------------------|
D|---------------------------------------------------------------------------|
A|---------------------------------------------------------------------------|
E|---------------------------------------------------------------------------|



************************************

| /   slide up
| \   slide down
| h   hammer-on
| p   pull-off
| ~   vibrato
| +   harmonic
| x   Mute note
| b   Bend
| pb  Pre-bend
| br  Bend release
| pbr Pre-bend release
| brb Bend release bend

************************************

************************************

Follow Gmartar on youtube to see this song in action!

************************************
Добавлено: 31.07.2015
Другие материалы по этой песне:
  • Аккорды и текст

Страница создана 31.07.2015
http://primanota.ru/kay-one/tag-des-jungstens-gerichts-chords.htm
Привет, Гость.
Предлагаем пройти революционный курс по гитаре.
Подарок от PrimaNota.Ru, забирай!