PrimaNota.ru - самый крупный в мире бесплатный архив песенных текстов, аккордов, табулатур и нот


Kaveret - Kol Kach Yafa - таба, видео

Регистрация Запомнить меня
Войти через:  Facebook Google Twitter Vk Yandex Mail.ru

Kaveret - Kol Kach Yafa - таба, видео

Печатать
Просмотров: 124
Уроки эстрадного вокала в Санкт-Петербурге
     A       F#      Abm      E
היא כל כך יפה  זה צובט בלב שלך
Abm  E    B7 F#m
אך  בכאב עצום
     F#      A    Abm    C#m
היא לא מבינה  שאני רוצה אותה
B7 F#m7 C#m    Abm  F#m
לא אומרת לי כלום
     A       F#      Abm  E
בגינה תשב  עם הטבע להתערבב
Abm  E  B7  F#m
היא והשושנים
   F#     A       Abm   C#m
שתי מילים אולי  הגדר מאחורי
C#m    Abm    F#m
אין לי אומץ מתאים
פזמון:
  F       G   D    C
כל השבוע   חלון פתוח
 B      G        D Am
כוכבים מעל ולב מתמוטט
   C#m        E    C#m     E 
הייתי נותן לה שק של סנטימנטים
B  C# C#4 C# C#4 C# C#4 C#    B     A    
אך אני מתבייש לתת
סולו:
e||----------------------9---14---------------------17--16--/17s0--16-14--|
B||-5----8-p7-p5--7-/11---------14-12-11--------17------------------------|
G||--------------------------------------14-/18---------------------------|
D||-----------------------------------------------------------------------|
A||-----------------------------------------------------------------------|
E||-----------------------------------------------------------------------|

e||------------------------16-14---------------------------|
B||-17--14--/16s0--14------------17-16---------------------|
G||--------------------16--------------16-15-h16p-15-13----|
D||-----------------------------------------------------13-|
A||--------------------------------------------------------|
E||--------------------------------------------------------|
                                                    C#m  
e||-----------------------------17--19--/21s0--19----4--|
B||----------14-17-/19s0-17-16--------------------19-5--|
G||-------14-----------------------------------------6--|
D||----14--------------------------------------------6--|
A||-16-----------------------------------------------4--|
E||-----------------------------------------------------|
בס:
e||-------------------------|
A||-------------------------|
G||-------------------------|
D||-4h6p4-------------------|
A||---------6h7p6--4h6p4-2--|
E||-------------------------|

e||--------------------------|
B||-5--5-h7-8p-7-5--5-h7p-5--|
G||--------------------------|
D||--------------------------|
A||--------------------------|
E||--------------------------|
זה קורה רבות  גם במשפחות טובות
ילד אוהב אישה. אבל בסוף תרגיש
היא בסוף תרגיש  שאני עומד בכביש
ותפנה את ראשה שאני עומד בכביש
ותפנה את ראשה
פזמון
סולו
כבר שנה חלפה  את הבית היא עזבה
לאן - זאת לא אדע. אבל קשה יותר
וקשה יותר למלא את החסר
רק נותרה שושנה
פזמון
C#m              E
לה, לה, לה, לה, לה
C#m              E
לה, לה, לה, לה, לה
C# C#4 C#     B      A  
חיכיתי יותר מידי
Добавлено: 06.08.2015
Другие материалы по этой песне:
  • Аккорды и текст

Страница создана 06.08.2015
http://primanota.ru/kaveret/kol-kach-yafa-chords.htm
Привет, Гость.
Предлагаем пройти революционный курс по гитаре.
Подарок от PrimaNota.Ru, забирай!