PrimaNota.ru - самый крупный в мире бесплатный архив песенных текстов, аккордов, табулатур и нот


Kauko Royhka - Lauralle - аккорды и текст, таба, видео

Регистрация Запомнить меня
Войти через:  Facebook Google Twitter Vk Yandex Mail.ru

Kauko Royhka - Lauralle - аккорды и текст, таба, видео

Печатать
Просмотров: 156
Уроки эстрадного вокала в Санкт-Петербурге
Авторы музыки: Kauko Röyhkä, Mats Huldén
Авторы текста: Kauko Röyhkä
Lauralle
Kauko Royhka
    D*    D/Bb   D/C     Bm/A    F#7sus4    G6
e|--5------1------3-------2---------0-------0--------|
B|--7------3------5-------3---------0-------0--------|
G|--7------3------5-------4---------x-------x--------|
D|--0------0------0-------4---------x-------x--------|
A|--x------x------x-------0---------4-------5--------|
E|--x------x------x-------x---------2-------3--------|

Intro- ja outromelodia on soitettu kahdelta eri oktaavilta (matala oktaavi
kuuluu vasemmasta kanavasta, korkea oikeasta.)/The intro and outro melody is played
in two octaves (the lower one plays in the left channel, the higher one in the right.)

Intro- ja outromelodia (matala oktaavi)/Intro and outro melody (lower octave):
  D*              D/Bb            D/C
e|------------------------------------------------------------------|
B|------------------------------------------------------------------|
G|-------2-0-----------------0-2-3-5-----5-----5-------------5------|
D|-4-2-0-----4-2-0-3-2-0-2-3---------5-5---5-5---5-5-----------5-5--|
A|------------------------------------------------------------------|
E|------------------------------------------------------------------|
   1 + 2 + 3 + 4 + 1 + 2 + 3 + 4 + 1 + 2 + 3 + 4 + 1 + 2 + 3 + 4 +

Intro- ja outromelodia (korkea oktaavi)/Intro and outro melody (higher octave):
  D*              D/Bb            D/C
e|-------5---------------------5-6-8-----8-----8-------------8------|
B|-7-5-----8-7-5---6-5---5-6-8-------8-8---8-8---8-8-----------8-8--|
G|-----7---------7-----7--------------------------------------------|
D|------------------------------------------------------------------|
A|------------------------------------------------------------------|
E|------------------------------------------------------------------|
   1 + 2 + 3 + 4 + 1 + 2 + 3 + 4 + 1 + 2 + 3 + 4 + 1 + 2 + 3 + 4 +

"Onnenpoika, onnenpoika":
   Bm              F#7sus4 G6
e|---------------------0-------0---|
B|-----------------------0-------0-|
G|---------------------------------|
D|---------------------------------|
A|-------------------4-------5-----|
E|-----------------2-------3-------|
   1 + 2 + 3 + 4 + 1 + 2 + 3 + 4 +
   Onnenpoika...

Soolo/solo:
     D     C         D     C         D     C         D
e|-------------------------------------------------------------------|
B|-------------------------------------------------------------------|
G|-------------------------------------------------------------------|
D|-------------2-s-5-4---------2-s-5-4-------------------------------|  2x
A|---5--55-3-----------5---3-------------5-3-----3-s-5---------------|
E|-5-------------------------------------------5---------------------|
   + 1 + 2 + 3 + 4 + 1 + 2 + 3 + 4 + 1 + 2 + 3 + 4 + 1 + 2 + 3 + 4 +

   C     Am        C     Am        C    
e|-------------------------------------------------|
B|-------------------------------------------------|
G|-5s7-s-2---2-s-7s5s7-s-2---2-s-7s5---------------|
D|-5s7-s-2---2-s-7s5s7-s-2---2-s-7s5---------------|
A|-------------------------------------------------|
E|-------------------------------------------------|
   1 + 2 + 3 + 4 + 1 + 2 + 3 + 4 + 1 + 2 + 3 + 4 +

Soita soolon ensimmäinen osa kerran korkeammalla oktaavilla tuplattuna/
Play the first solo part once doubled with the higher octave like this:
     D     C         D     C         D     C         D
e|-------------------------------------------------------------------|
B|-------------5-s-8-7---------5-s-8-7-------------------------------|
G|---7--77-5-----------7---5-------------7-5-----5-s-7---------------|
D|-7-------------------------------------------7---------------------|
A|-------------------------------------------------------------------|
E|-------------------------------------------------------------------|
   + 1 + 2 + 3 + 4 + 1 + 2 + 3 + 4 + 1 + 2 + 3 + 4 + 1 + 2 + 3 + 4 +

--------------------------------------------------------------------------

Intro:
D* D/Bb D/C (2x)

    D                    D7M  
Jos nyt en niin en mene ollenkaan.
      D6                D7M  
Olen koputtanut - tule avaamaan,
    Bm        Bm/A           
Oi Laura, Laura...
    A       G  A
Ovi aukeaa. 

          D                 D7M  
Se on veljesi: "Laura, sait vieraita!"
      D6                 D7M  
Menen sisälle, kättelen vanhemmat.
   Bm         Bm/A
Oi Laura, Laura,
    Em       A7     D
Vapisen kuin kuumeessa.

Bm                      F#7sus4  G6
Onnenpoika, onnenpoika.
Bm                      F#7sus4  G6
Onnenpoika, onnenpoika.
      Bm         A
Minä sulle nyök-kään.
      G   F#m    Em  A7      D
Sinä tah-dot    tie-tää kuka oon. 

       D            D7M  
Niin, minua et sinä huomannut.
      D6              D7M  
Olen kadulla aina, ja näin sut,
    Bm        Bm/A           
Oi Laura, Laura,
     A       G  A
Tänä aamuna. 

    D                D7M  
En tavallisesti, tai milloinkaan,
     D6              D7M  
Ole lumoutunut kuten aamulla.
   Bm         Bm/A
Oi Laura, Laura,
    Em         D
Oli pakko uskaltaa. 

Bm                      F#7sus4  G6
Onnenpoika, onnenpoika.
Bm                      F#7sus4  G6
Onnenpoika, onnenpoika.
      Bm        A
Sinä katsot pit-kään.
      G  F#m  Em   A7             D
Sinä nau-rat. Men-nään sun huoneeseen.

Soolo:
D C D C D C D
D C D C D C D

C Am C Am C
D C D C D C D

    D                 D7M  
Me tökitään sormilla, pelleillään.
     D6             D7M  
Kotiväkesi katselee teeveetä.
   Bm         Bm/A
Oi Laura, Laura,
     Em   A7     D
Olet juuri sellainen
          Bm         D
Jota olen toivonut, ahaa.
          Bm         D
Jota olen toivonut, ahaa.
          Bm               D  Bm  D  Bm
Jota olen toivonut, da da daa...

Outro:
D* D/Bb D/C (repeat to fade)
Добавлено: 27.06.2015
Вам также может быть интересно:
Другие материалы по этой песне:
  • Аккорды и текст

Страница создана 07.01.2014
http://primanota.ru/kauko-royhka/lauralle-chords.htm
Привет, Гость.
Предлагаем пройти революционный курс по гитаре.
Подарок от PrimaNota.Ru, забирай!