PrimaNota.ru - самый крупный в мире бесплатный архив песенных текстов, аккордов, табулатур и нот


Katjie And Piering - Zsa Zsa Zsu - таба, видео

Регистрация Запомнить меня
Войти через:  Facebook Google Twitter Vk Yandex Mail.ru

Katjie And Piering - Zsa Zsa Zsu - таба, видео

Печатать
Просмотров: 76
----------------------------------------------------------------------
       Zsa Zsa Zsu (Rock n' Roll Mafia Cover) - Katjie Piring
----------------------------------------------------------------------
Tabbed by: Nur Fuad Muhammad
Date : 12 October 2015
E-mail: fuadmuhammad24@gmail.com

Tuning: Standard
Capo on 1st

Intro :
e|-------------------------------------------------------------------|
B|--------0---0----------0---0------------0---0-----------0---0------|
G|------0---0----------0---0---0--------0---0---0-------0---0---0----|
D|-------------------------------------------------------------------|
A|----0--------------2----------------3------------------------------|
E|--------------------------------------------------0----------------|

e|-------------------------0----------------0---------------0--------|
B|-------0---0----------0-------0--------0-------0-------0-------0---|
G|-----0---0---0------0---0---0--------0---0---0-------0---0---0-----|
D|-------------------------------------------------------------------|
A|---0--------------2----------------3-------------------------------|
E|--------------------------------------------------0----------------|

"a bloody gorgeous man pours bloody mary into my glass.....
e|----------0--------------0----------------0---------------0--------|
B|-------0-------0------0-------0--------0-------0-------0-------0---|
G|-----0---0---0------0---0---0--------0---0---0-------0---0---0-----|
D|-------------------------------------------------------------------|
A|---0--------------2----------------3-------------------------------|
E|--------------------------------------------------0----------------|

...I bet he's good at sex on the phone"
e|----------0--------------0----------------0---------------0--------|
B|-------0-------0------0-------0--------0-------0-------0-------0---|
G|-----0---0---0------0---0---0--------0---0---0-------0---0---0-----|
D|-------------------------------------------------------------------|
A|---0--------------2----------------3-------------------------------|
E|--------------------------------------------------0----------------|

Interlude :
e|----------0--------------0----------------0---------------0--------|
B|-------0-------0------0-------0--------0-------0-------0-------0---|
G|-----0---0---0------0---0---0--------0---0---0-------0---0---0-----|
D|-------------------------------------------------------------------|
A|---0--------------2----------------3-------------------------------|
E|--------------------------------------------------0----------------|

e|----------0--------------0--------------------------------0--------|
B|-------0-------0------0-------0--------0---0---0-------0-------0---|
G|-----0---0---0------0---0---0--------0---0---0-------0---0---0-----|
D|-------------------------------------------------------------------|
A|---0--------------2----------------3-------------------------------|
E|--------------------------------------------------0----------------|

"she's a happy maiden liberty, she got no wrong in her life.....
e|----------0--------------0----------------0---------------0--------|
B|-------0-------0------0-------0--------0-------0-------0-------0---|
G|-----0---0---0------0---0---0--------0---0---0-------0---0---0-----|
D|-------------------------------------------------------------------|
A|---0--------------2----------------3-------------------------------|
E|--------------------------------------------------0----------------|

...oh I just only see, perhaps you'll find"
e|----------0--------------0----------------0---------------0--------|
B|-------0-------0------0-------0--------0-------0-------0-------0---|
G|-----0---0---0------0---0---0--------0---0---0-------0---0---0-----|
D|-------------------------------------------------------------------|
A|---0--------------2----------------3-------------------------------|
E|--------------------------------------------------0----------------|

Chorus :

"your zsa zsa zsu...
e|----------0--------------0----------------0------------------------|
B|-------2-------2------2-------2--------2-------2------2-------2----|
G|-----2---2---2------2---2---2--------2---2---2------2---2---2---2--|
D|-----------------------------------0--------------2-------0--------|
A|---0--------------4------------------------------------------------|
E|-------------------------------------------------------------------|

I suppose, I suppose, we supposed..(End)"
e|----------0--------------0----------------0------------------------|
B|-------2-------2------2-------2--------2-------2------2-------2----|
G|-----2---2---2------2---2---2--------2---2---2------2---2---2---2--|
D|-----------------------------------0--------------2-------0--------|
A|---0--------------4-----------------------------------------------0|
E|-------------------------------------------------------------------|

Добавлено: 21.06.2016
Другие материалы по этой песне:
  • Аккорды и текст

Страница создана 21.06.2016
http://primanota.ru/katjie-and-piering/zsa-zsa-zsu-chords.htm
Привет, Гость.
Предлагаем пройти революционный курс по гитаре.
Подарок от PrimaNota.Ru, забирай!