PrimaNota.ru - самый крупный в мире бесплатный архив песенных текстов, аккордов, табулатур и нот


Kathleen Edwards - Away - аккорды и текст, видео

Регистрация Запомнить меня
Войти через:  Facebook Google Twitter Vk Yandex Mail.ru

Kathleen Edwards - Away - аккорды и текст, видео

Печатать
Просмотров: 67
Уроки эстрадного вокала в Санкт-Петербурге
Авторы музыки: Kathleen Edwards
Авторы текста: Kathleen Edwards
Away
Kathleen Edwards
Am7      x 0 2 2 1 3
Cadd5    x 3 2 0 1 3

I like to use this finger-picking pattern for the intro and mixed into the strumming pattern as well:

e|------3------3--|------0---------|------3-------3-|------0---------|
B|--1-------1-----|--1-------1-----|--1-------1-----|--1-------1-----|
G|----2-------2---|----2-------2p0-|----0-------0---|----0-------0h2-|
D|----------------|----------------|----------------|----------------|
A|0-------0-------|0-------0-------|3-------3-------|3-------3-------|
E|----------------|----------------|----------------|----------------|

e|------1------3--|------1---------|------1-------3-|------1---------|
B|--1-------1-----|--1-------1-----|--1-------1-----|--1-------1-----|
G|----2-------2---|----2-------2p0-|----2-------2---|----2-------0h2-|
D|0-------0-------|0-------0-------|3-------3-------|3-------3-------|
A|----------------|----------------|----------------|----------------|
E|----------------|----------------|----------------|----------------|

    Am7
I remember the way
Cadd5
Driving home late
         Dm7
Speeding all the way
F
Alone in the rain
        Am7
I was rehearsing a part
     Cadd5
From down at the bar
   Dm7
My mouth smelled like a drink
        F
We were laughing, I think
          Am7
I've been away
          Cadd5
I've been away
          Dm7          F
I've been away


       Am7
Do you pick up your phone
            Cadd5
Do you check your mail
        Dm7                  F
Do you answer your door even if it's late?
        Am7
I don't know who to call
        Cadd5
I don't know who to write
      Dm7
And I think I forgot
         F
What your face looks like
          Am7
I've been away
          Cadd5
I've been away
          Dm7          F
I've been away

       G
Do you think that I've changed
  Dm7
I swear I never tried
            F
Memory is a terrible thing
         C            C/B
When you use it right
      Am7
I was rehearsing a part
                 Cadd5
From down at the bar
         Dm7
My mouth smelled like a drink
        F
We were laughing, I think

Am7   Cadd5    Dm7     F

          Am7
I've been away
          Cadd5
I've been away
          Dm7
I've been away
    F
And away
    Am7
And away
          Cadd5
I've been away

Dm7    F    C
Добавлено: 11.03.2016
Другие материалы по этой песне:
  • Аккорды и текст

Страница создана 06.05.2012
http://primanota.ru/kathleen-edwards/away-chords.htm
Привет, Гость.
Предлагаем пройти революционный курс по гитаре.
Подарок от PrimaNota.Ru, забирай!