PrimaNota.ru - самый крупный в мире бесплатный архив песенных текстов, аккордов, табулатур и нот


Katharine Lee Bates - America The Beautiful - таба, видео

Регистрация Запомнить меня
Войти через:  Facebook Google Twitter Vk Yandex Mail.ru

Katharine Lee Bates - America The Beautiful - таба, видео

Печатать
Просмотров: 118
Авторы музыки: Samuel Augustus Ward
Авторы текста: Katharine Lee Bates
-------------------------------------------------------------------------------
                             America the beautiful - katharine lee bates
-------------------------------------------------------------------------------
key of Bb
Tuning:E-A-D-G-B-e
e|---------------------------------------------------------------------------|
B|---------------------------------------------------------------------------|
G|--------------------------------------------0----2-------------------------|
D|-3--3--0--0---3---3--------------0---1--3---1----1---3----3---3--0----0--3-|
A|-5--5--1--1---5---3---3-----3----0---3--3------------5----3---5--1----1--5-|
E|----------------------5-----5----------------------------------------------|
   O beautiful for spacious skies for amber waves of grain for purple mountain
e|---------------------------------------------------------------------------|
B|------------1--0--1---3--------1-----3-3-1---------------1-----------------|
G|-------------------------0-----------------3-3-2-2--3--------2----0--------|
D|--3---------3--3--3---1--1-----3---3-3-3-3-0-1-3-3--3----3---3----1----3---|
A|--3--3--3------------------------------------------------------------------|
E|---------------------------------------------------------------------------|
   majesties above the fruited plain america america God shed His grace on  
e|---------------------------------------------------------------------------|
B|-----------------------------------------------------------1---------------|
G|---3---3----3----0----0----3---3----------------0--3-----------3-----------|
D|---0---3----1----1----1----1---0---3---3----3----------3---1---0-----------|
A|-----------------------------------5---5-----------------------------------|
E|---------------------------------------------------------------------------|
   thee and crown thy good with brotherhood from sea to shining sea! 

************************************

| /   slide up
| \   slide down
| h   hammer-on
| p   pull-off
| ~   vibrato
| +   harmonic
| x   Mute note
| b   Bend
| pb  Pre-bend
| br  Bend release
| pbr Pre-bend release
| brb Bend release bend

************************************
Добавлено: 15.12.2015
Другие материалы по этой песне:
  • Аккорды и текст

Страница создана 15.12.2015
http://primanota.ru/katharine-lee-bates/america-beautiful-chords.htm
Привет, Гость.
Предлагаем пройти революционный курс по гитаре.
Подарок от PrimaNota.Ru, забирай!