PrimaNota.ru - самый крупный в мире бесплатный архив песенных текстов, аккордов, табулатур и нот


Kate Voegele - Monday Rain - текст песни, таба, видео

Регистрация Запомнить меня
Войти через:  Facebook Google Twitter Vk Yandex Mail.ru

Kate Voegele - Monday Rain - текст песни, таба, видео

Печатать
Просмотров: 149
-------------------------------------------------------------------------------
                             Monday Rain - Kate Voegele
-------------------------------------------------------------------------------
Tabbed by:Momo42


Tuning:Standard

INTRO:
      D            G      A                 D       G       A
e|--2------------------------------------0----------------------------|
B|-----3----2-3---0--3--2------------------3-------0---3---2----------|
G|--2-----2-------0---------2-----0-2--------2-----0----------2-------|
D|-----------------------------4---------------4----------------------|
A|----------------------0----------------------------------0----------|
E|----------------3--------------------------------3------------------|

Verse 1:
   D                      G
It's the start of something brand new 
     D                 A
It's the start of the closing line
   D                       G
With the door cracked an inch or two 
   D              A        G    A
Do I dare set my foot inside?
   D              G
Do I love you then lose you 
   D                 A
Or do I put my trust in time?
   D        G           D                   A            G  A
Do I let myself refuse to count on a fateful dream of mine?

Chorus:
D               G           Bm               A
Within me, It tugs on, My heartstrings, And I know
         D                 G         Bm             A
It's just a sky of silver gray, Just a narrow passageway
       D               G             Bm           A
Just a song cut off halfway, Just another Monday rain

      D            G      A                 D       G       A
e|--2------------------------------------0----------------------------|
B|-----3----2-3---0--3--2------------------3-------0---3---2----------|
G|--2-----2-------0---------2-----0-2--------2-----0----------2-------|
D|-----------------------------4---------------4----------------------|
A|----------------------0----------------------------------0----------|
E|----------------3--------------------------------3------------------|


Verse 2:
       D                       G
Would I spend a week in the heart of the city;
     D              A
In the center of your heart?
     D                            G
For a flash of fame before I'd lose the game
       D                    A                  G  A
And be stuck on the outskirts, back at the start
         D                G
There's no price I would not pay 
       D                A
For the superlative insured
       D                             G
So I'll light the candle, hope it does not melt away
D                     A          G  A    
But what if patience brings reward?

Chorus:
D               G           Bm               A
Within me, It tugs on, My heartstrings, And I know
         D                 G         Bm             A
It's just a sky of silver gray, Just a narrow passageway
       D               G             Bm           A
Just a song cut off halfway, Just another Monday rain

      D            G      A                 D       G       A
e|--2------------------------------------0----------------------------|
B|-----3----2-3---0--3--2------------------3-------0---3---2----------|
G|--2-----2-------0---------2-----0-2--------2-----0----------2-------|
D|-----------------------------4---------------4----------------------|
A|----------------------0----------------------------------0----------|
E|----------------3--------------------------------3------------------|

      D            G     A     D    G       
e|--2--------------------0----2----3---------|
B|-----3----2-3---3-----------3--------------|
G|--2-----2-------0----------------0---------|
D|-----------------------2-------------------|
A|-------------------------------------------|
E|----------------3--------------------------|

Bridge:
D     A    Bm    G  A
Raining harder now, 
D      A     Bm  G  A
Raining harder now, 
D      A      Bm  G  A
Raining harder now, 
D     A       Bm  G  A
Raining harder now. 

Chorus:
D              G             D                  A
Within me, It tugs on, My heartstrings, My heart sings
D                  G       D    A
This anthem, Of misery
      D                   G                 D 
Is it consequence, Or providence, I'm on the fence
  A                  G               Bm               A         G A
Of imminence, And nothing to gain, Drenched in the Monday rain 

OUTRO:
      D            G      A                 D       G       A
e|--2------------------------------------0----------------------------|
B|-----3----2-3---0--3--2------------------3-------0---3---2----------|
G|--2-----2-------0---------2-----0-2--------2-----0----------2-------|x2
D|-----------------------------4---------------4----------------------|
A|----------------------0----------------------------------0----------|
E|----------------3--------------------------------3------------------|

Ending D
************************************

| /   slide up
| \   slide down
| h   hammer-on
| p   pull-off
| ~   vibrato
| +   harmonic
| x   Mute note
| b   Bend
| pb  Pre-bend
| br  Bend release
| pbr Pre-bend release
| brb Bend release bend

************************************
Добавлено: 22.08.2013
Другие материалы по этой песне:
  • Аккорды и текст

Страница создана 22.08.2013
http://primanota.ru/kate-voegele/monday-rain-chords.htm
Привет, Гость.
Предлагаем пройти революционный курс по гитаре.
Подарок от PrimaNota.Ru, забирай!