PrimaNota.ru - самый крупный в мире бесплатный архив песенных текстов, аккордов, табулатур и нот


Kate Rusby - Polly - текст песни, таба, видео

Регистрация Запомнить меня
Войти через:  Facebook Google Twitter Vk Yandex Mail.ru

Kate Rusby - Polly - текст песни, таба, видео

Печатать
Просмотров: 171
-------------------------------------------------------------------------------
                             Polly - Kate Rusby
-------------------------------------------------------------------------------
Tabbed by: Neil Palfreyman
Email: neilpalfreyman@hotmail.com

Tuning: DADGBd
Time Signature: 3/4 
Notes: Played with Capo on 5th fret or 7th depending how Kate is feeling
       on the night. Strum in standard 3/4 time.



  G                D                C                G
d|0---------------|0---------------|0---------------|0---------------|
B|0---------------|3---------------|1---------------|0---------------|
G|0---------------|0---------------|0---------------|0---------------|___
D|0---------------|4---------------|2---------------|0---------------|   |
A|5---------------|5---------------|3---------------|5---------------|   |
D|5---------------|0---------------|0---------------|5---------------|   |
  ^    ^    ^      ^    ^    ^      ^    ^    ^      ^    ^    ^         |
                                                                         | INTRO
                                                                         |
  Em               C    G           D                G                   |
d|0---------------|0----0----------|0---------------|0---------------|   |
B|0---------------|1----0----------|3---------------|0---------------|   |
G|0---------------|0----0----------|0---------------|0---------------|---
D|0---------------|2----0----------|4---------------|0---------------|
A|2---------------|3----5----------|5---------------|5---------------|
D|2---------------|0----5----------|0---------------|5---------------|
  ^    ^    ^      ^    ^    ^      ^    ^    ^      ^    ^    ^      



  VERSE
 
 /G                D                C                D
d|0---------------|0---------------|0---------------|0---------------|
B|0---------------|3---------------|1---------------|3---------------|
G|0---------------|0---------------|0---------------|0---------------|
D|0---------------|4---------------|2---------------|4---------------|
A|5---------------|5---------------|3---------------|5---------------|
D|5---------------|0---------------|0---------------|0---------------|
 \^    ^    ^      ^    ^    ^      ^    ^    ^      ^    ^    ^      
  Polly, she is    fine,     She is pretty and she's kind      she's


  G                                 C         D      G
d|0---------------|----------------|0---------0-----|0---------------|
B|0---------------|----------------|1---------3-----|0---------------|
G|0---------------|----------------|0---------0-----|0---------------|
D|0---------------|----------------|2---------4-----|0---------------|
A|5---------------|----------------|3---------5-----|5---------------|
D|5---------------|----------------|0---------0-----|5---------------|
  ^    ^    ^      ^    ^    ^      ^    ^    ^      ^    ^    ^      
  fallen for a     sailor,   and    he to her proved kind,     He said


  G                D                C                D
d|0---------------|0---------------|0---------------|0---------------|
B|0---------------|3---------------|1---------------|1---------------|
G|0---------------|0---------------|0---------------|0---------------|
D|0---------------|4---------------|2---------------|4---------------|
A|5---------------|5---------------|3---------------|5---------------|
D|5---------------|0---------------|0---------------|0---------------|
  ^    ^    ^      ^    ^    ^      ^    ^    ^      ^    ^    ^      
  I'm sorry for to say,      Polly  I    must sail   away      Oh but


 /Em               C    G           D                G              \
d|0---------------|0----0----------|0---------------|0---------------|
B|0---------------|1----0----------|3---------------|0---------------|
G|0---------------|0----0----------|0---------------|0---------------|Repeat for verses 2 & 3
D|0---------------|2----0----------|4---------------|0---------------|Repeat twice for last verse
A|2---------------|3----5----------|5---------------|5---------------|
D|2---------------|0----5----------|0---------------|5---------------|
 \^    ^    ^      ^    ^    ^      ^    ^    ^      ^    ^    ^    /  
  I will take you  dan- cing        upon our         wedding day.




  Seven years are o'er, seven years or more,
  Polly's waiting for her sailor, she weeps there on the shore.
  At length a man came by, weeping Polly he did spy,
  Maiden let me take you dancing and let your tears be dry,
  Maiden let me take you dancing and let your tears be dry.

  [PLAY INTRO AGAIN]

  Polly in surprise, she wipes her tear and then she sighs,
  I fear that my young sailor on the ocean bed lies,
  For you I've not a care, for my heart is with him there,
  And I'll never go a-dancing with you I do declare, 
  No I'll never go a-dancing with you I do declare.

  Polly don't you see, oh that happy now we'll be,
  For I am your young sailor who's come home from the sea,
  And here with you I'll stay and no more I'll sail away,
  But we will go a-dancing upon our wedding day,
  We will go a-dancing upon our wedding day,
  Oh and let me take you dancing upon our wedding day.






| /  slide up
| \  slide down
| h  hammer-on
| p  pull-off
| ~  vibrato
| +  harmonic
| x  Mute note
===============================================================================


Добавлено: 15.07.2012
Другие материалы по этой песне:
  • Аккорды и текст

Страница создана 01.05.2012
http://primanota.ru/kate-rusby/polly-chords.htm
Привет, Гость.
Предлагаем пройти революционный курс по гитаре.
Подарок от PrimaNota.Ru, забирай!