PrimaNota.ru - самый крупный в мире бесплатный архив песенных текстов, аккордов, табулатур и нот


Kate Nash - Sister - аккорды и текст, бас-таба, видео

Регистрация Запомнить меня
Войти через:  Facebook Google Twitter Vk Yandex Mail.ru

Kate Nash - Sister - аккорды и текст, бас-таба, видео

Печатать
Просмотров: 125
Авторы: Kate Nash

Sister
Kate Nash
Ok so lemme just say I'm so ecstatic Kate Nash wrote an angry gay girl love song...so of 
course I had to TAB the angry girl love song because there aren't any tabs around. Anyway  the song is in *~CAPO 1~* unless you want to do all the weird sharps and stuff.

INTRO- there is a bass part for this, but standard 6-string guitars can't go low enough. 
So, in a key higher it's (relative to capo):
e---------------------------------|
B---------------------------------|
G---------------------------------|
D-0-0-0-0-------3-3-3-3-3-3-3-3-3-|
A---------3-3-3-------------------|
E---------------------------------|

And then for the second time the intro verse is played, you can switch to:

e---------------------------------|
B---------------------------------|
G---------------------------------|
D-0-0-0-0-------3-3-3-3-3---------|
A---------3-3-3-----------1-1-1-1-|
E---------------------------------|

OR EVEN MIX IT UP WITH THIS:
e---------------------------------|
B---------------------------------|
G---------------------------------|
D-0-0-0-0-------------------------|
A---------3-3-3-3-----------------|
E-----------------1-1-1-1-1-1-1-1-|

whatever sounds good to you, yo. you're the one playing the song. (the last two versions 
aren't even IN the intro really,but they sound okay).

There was this cool, cool girl
She was about your age
She kind of had your smile
She kind of had your face
[x2]

CHORUS
Dm               C
She wanted to be my lover
F                Bb
But my heart was with another and
Dm                      C
Yeah I really wish that we could be friends
F                                  Bb
But I know I'm never gonna get you back again
Dm                         C
I just wish that you would answer the phone
       F                       B                    Dm C F B
'Cause, I could really do with talking to you right now

VERSE 1

there is a little guitar part throughout this that i tabbed to the best of my ability 
(which is not very good, so feel free to correct me):
e-----5-----3-----------------|
B---6---6--------5------------|
G-7-------5--------2-----2-3--|
D-----------------------------|
A-----------------------------|
E-----------------------------|

Dm      C             F         Bb
Another girl broke my heart; it hurt
Dm               C
I even wrote you poetry
   F       B
So now I'm scarred
Dm          C
I look up into the sky and
    F              Bb   Dm C F Bb
I wish that I could fly, high


VERSE 2 (bridge?)

another guitar part. this is a very basic version of it, repeat the notes a couple time 
if you want it to sound profesh:
e----------------------------|
B----------------------------|
G---------------2-----3--3-2-|
D-0----3-------------3-------|
A-------3-----3--------------|
E----------------------------|
Oh yeah, and there are a couple of bends and effects used within the guitar parts, but I 
am not profesh enough to tab them. My apologies.

Dm      C
Sister, sister
      F                 Bb
Well, don't ya know how much I miss ya?
Dm            C
Oh my god, my, my sister
F
You were just like
Bb
A blister
      Dm         C
Well, sister, sister,
F                 Bb
Don't ya know how much I missed ya?
Dm     C    F   Bb
Sister


CHORUS
Dm            C
She wanted to be my lover
F                Bb
But my heart was with the other and
Dm                      C
Yeah I really wish that we could be friends
      F                            Bb
But I know I'm never gonna get you back again
Dm                         C
I just wish that you would answer the phone
        F                      Bb                   Dm  C  F  Bb
'Cause, I could really do with talking to you right now

VERSE 3:
Ya also do the first guitar part again. In case you forgot:
e-----5-----3-----------------|
B---6---6--------5------------|
G-7-------5--------2-----2-3--|
D-----------------------------|
A-----------------------------|
E-----------------------------|
Dm       C                 F              Bb
It's not fair to watch you walk away like this
Dm     C                 F            Bb
I just wish that I could get one more kiss
Dm        C           F          Bb
But you gave it, you gave it to another
Dm           C             F         Bb
And it's not fair to me to trust ya

VERSE 4:
and the second guitar part also makes a reappearance! In case you forgot:
e----------------------------|
B----------------------------|
G---------------2-----3--3-2-|
D-0----3-------------3-------|
A-------3-----3--------------|
E----------------------------|
Dm           C                      F             Bb
Being ripped away from you, is like being ripped out of a room
Dm                 C             F                Bb
I'm sorry, is that too dramatic? I should just be far more placid
     Dm             C
Well blah-blah, blah-blah, me myself and I
 F            Bb            Dm  C  F  Bb
I'm so funny, oh my god, ha ha

CHORUS:
Dm            C
She wanted to be my lover
F                Bb
But my heart was with another and
Dm                      C
Yeah I really wish that we could be friends
      F                            Bb
But I know I'm never gonna get you back again
Dm                         C
I just wish that you would answer the phone
        F                      Bb                   Dm  C  F  Bb
'Cause, I could really do with talking to you right now
[x3]

On the third chorus, it's kinda a come down, and so the bass part comes back in again. 
In case you don't want to scroll back up:
e---------------------------------|
B---------------------------------|
G---------------------------------|
D-0-0-0-0---------3-3-3-3---------|
A---------3-3-3-3---------1-1-1-1-|
E---------------------------------|
preeeeeeeeeety sure that's how it goes. cool. stay rad everyone.
Добавлено: 25.09.2014
Другие материалы по этой песне:
  • Аккорды и текст

Страница создана 04.01.2014
http://primanota.ru/kate-nash/sister-chords.htm
Привет, Гость.
Предлагаем пройти революционный курс по гитаре.
Подарок от PrimaNota.Ru, забирай!