PrimaNota.ru - самый крупный в мире бесплатный архив песенных текстов, аккордов, табулатур и нот


Kate Miller-heidke - Shoebox - таба, видео

Регистрация Запомнить меня
Войти через:  Facebook Google Twitter Vk Yandex Mail.ru

Kate Miller-heidke - Shoebox - таба, видео

Печатать
Просмотров: 129
Уроки эстрадного вокала в Санкт-Петербурге
Shoebox- as performed by Kate Miller-Heidke

Note: Low E/6th string tuned down to C#


intro
-----------------------------------|
-----------------------------------|
-----------------------------------|
-----------------------------------|
-----------------------------------|
--0--0-0--0-0--0--0--0--0--0--0-0--|


Main riff and most of verse 1:
C#
-------------------------------------| repeat until….
-------------------------------------|
-----6---6--5-5-5--6-----------------|
-----6---6--6-6-6--6-----------------|
-44--4---4--4-4-4--4---4-4-4---------|
-00--0---0--0-0-0--0---0-0-0---------|


A#m G#
(repeat x4)
---------1--1-1-1--1-1-1-1--1-1-1--------------------4-----------------|
---------2--2-2-2--1-1-1-2--2-2-2--------------------4-----------------|
---------3--3-3-3--3-3-3-3--3-3-3--------------------5-----(strum it)--|
---------3--3-3-3--3-3-3-3--3-3-3--------------------6-----------------|
----1----1--1-1-1--1-1-1-1--1-1-1--------------------6-----------------|
-----------------------------------------------------------------------|
and this is a shoebox…… …………………….that I don't belong here and just

F#

-----------------------------------------------------------------------------------------|
-----------------------------------------------------------------------------------------|
----11--11-10--10--11--11-10-10—11--11-10--10--11--11-10-10------------------------------|
----11--11-11--11--11--11-11-11--11--11-11--11--11--11-11-11-----------------------------|
-----9---9--9---9---9---9--9--9---9---9--9---9---9---9--9--9-----------------------------|
-----9---9--9---9---9---9--9--9---9---9--9---9---9---9--9—9------------------------------|

and just 'cause it works for you , doesn't mean it works for


----------------------------------------------------------------| repeat from F#, then strum E
----------------------------------------------------------------| (with no 6string)
-----6---6--5-5-5--6------------------- 6---6--5-5-5—6----------|
-----6---6--6-6-6--6------------------- 6---6--6-6-6—6----------|
-44--4---4--4-4-4--4---4-4-4-------44--4---4--4-4-4--4---4-4-4--|
-00--0---0--0-0-0--0---0-0-0-------00--0---0--0-0-0--0---0-0-0--|


E F# C# E F# C# E F#
When the seas are getting rough, and I feel I've had enough, I just need time

-------------------------------------------------------------------------|
-------------------------------------------------------------------------|
----6----------6----------------6---------6-----------------6---------6--|
-------------------------------------------------------------------------|
-------------------------------------------------------------------------|
----4----------5----------------4---------5-----------------9---------7--|
….everything is back to normal and everything is as it should be and if everything's 
than you hoped for

-----------------------------------------------------------------------------------------|
-----------------------------------------------------------------------------------------|
--------------6----6----6-6--6-6-6-------------------------------------------------------|
-----------------------------------------------------------------------------------------|
-------------------4----4-4--4-4-4-------------------------------------------------------|
--------------5----5----5-5--5-5-5-------------------------------------------------------|
still everythings okay by me
Добавлено: 30.04.2012
Другие материалы по этой песне:
  • Аккорды и текст

Страница создана 30.04.2012
http://primanota.ru/kate-miller-heidke/shoebox-chords.htm
Привет, Гость.
Предлагаем пройти революционный курс по гитаре.
Подарок от PrimaNota.Ru, забирай!