PrimaNota.ru - самый крупный в мире бесплатный архив песенных текстов, аккордов, табулатур и нот


Kate Mcgill - Kids - таба, видео

Регистрация Запомнить меня
Войти через:  Facebook Google Twitter Vk Yandex Mail.ru

Kate Mcgill - Kids - таба, видео

Печатать
Просмотров: 147
MGMT - Kids (Kate McGill Cover)              tabbed by Craig McKay             

http://www.katemcgill.co.uk/

- = semi-quaver   eg 1   2   3   4   
		     ----------------

x = mute

Intro:

Guitar 1 (Capo 6th Fret)
									x4
e |----------------|----------------|----------------|----------------| ||
B |------0---------|------1---------|------0---------|------0---------|.||
G |--------0-------|----0---0-------|--------0-------|----2---2-------| ||
D |----2-----2---2-|--2-------2---0-|----0-----0---0-|--0-------0---0-|.||
A |--2---------2---|3-----------3---|--2---------2---|0-----------0---| ||
E |0---------------|----------------|3---------------|----------------| ||

Guitar 2 (Capo 6th Fret)

e|----------------|0---2-0---------|----------------|----------------|
B|--------0---3---|----------3-----|----------------|----------------|
G|0---2-----------|--------------0-|----------------|2---------------|
D|----------------|----------------|----------------|----------------|
A|----------------|----------------|----------------|----------------|
E|----------------|----------------|----------------|----------------|

e|----------------|0---2-0---------|----------------|----------------|
B|--------0---3---|----------3-----|----------------|----------------|
G|0---2-----------|--------------0-|----------------|----------------|
D|----------------|----------------|----------------|----------------|
A|----------------|----------------|----------------|----------------|
E|----------------|----------------|----------------|----------------|

e|----------------|0---2-0---------|----------------|----------------|
B|--------0---3---|----------3-----|----------------|----------------|
G|0---2-----------|--------------0-|----------------|2---------------|
D|----------------|----------------|----------------|----------------|
A|----------------|----------------|----------------|----------------|
E|----------------|----------------|----------------|----------------|

e|----------------|----------------|----------------|----------------|
B|--------0-------|----------------|----------------|1-0-------------|
G|0---2-------2---|0---2-0-------0-|----------------|----2-0---2-0---|
D|----------------|----------2-----|----------------|--------------4-|
A|----------------|----------------|----------------|----------------|
E|----------------|----------------|----------------|----------------|

Verse 1:

Guitar 1 (Capo 6th Fret)
									x4
e |----------------|----------------|----------------|----------------| ||
B |------0---------|------1---------|------0---------|------0---------|.||
G |--------0-------|----0---0-------|--------0-------|----2---2-------| ||
D |----2-----2---2-|--2-------2---0-|----0-----0---0-|--0-------0---0-|.||
A |--2---------2---|3-----------3---|--2---------2---|0-----------0---| ||
E |0---------------|----------------|3---------------|----------------| ||

Guitar 2 (Capo 6th Fret)

e|----------------|0---2-0---------|----------------|----------------|
B|--------0---3---|----------3-----|----------------|----------------|
G|0---2-----------|--------------0-|----------------|2---------------|
D|----------------|----------------|----------------|----------------|
A|----------------|----------------|----------------|----------------|
E|----------------|----------------|----------------|----------------|

e|----------------|0---2-0---------|----------------|----------------|
B|--------0---3---|----------3-----|----------------|----------------|
G|0---2-----------|--------------0-|----------------|----------------|
D|----------------|----------------|----------------|----------------|
A|----------------|----------------|----------------|----------------|
E|----------------|----------------|----------------|----------------|

e|----------------|0---2-0---------|----------------|----------------|
B|--------0---3---|----------3-----|----------------|----------------|
G|0---2-----------|--------------0-|----------------|2---------------|
D|----------------|----------------|----------------|----------------|
A|----------------|----------------|----------------|----------------|
E|----------------|----------------|----------------|----------------|

e|----------------|----------------|----------------|----------------|
B|--------0-------|----------------|----------------|1-0-------------|
G|0---2-------2---|0---2-0-------0-|----------------|----2-0---2-0---|
D|----------------|----------2-----|----------------|--------------4-|
A|----------------|----------------|----------------|----------------|
E|----------------|----------------|----------------|----------------|

Chorus:

Guitar 1 (Capo 6th Fret)
									x3
e |----------------|----------------|----------------|----------------| ||
B |------0---------|------1---------|------0---------|------0---------|.||
G |--------0-------|----0---0-------|--------0-------|----2---2-------| ||
D |----2-----2---2-|--2-------2---0-|----0-----0---0-|--0-------0---0-|.||
A |--2---------2---|3-----------3---|--2---------2---|0-----------0---| ||
E |0---------------|----------------|3---------------|----------------| ||

e |----------------|----------------|----------------|----------------|
B |------0---------|------1---------|------0---------|----------------|
G |--------0-------|----0---0-------|--------0-------|----------------|
D |----2-----2---2-|--2-------2---0-|----0-----0---0-|----------------|
A |--2---------2---|3-----------3---|--2---------2---|0---------------|
E |0---------------|----------------|3---------------|----------------|


Guitar 2 (Capo 6th Fret)

e|----------------|0---2-0---------|----------------|----------------|
B|--------0---3---|----------3-----|----------------|----------------|
G|0---2-----------|--------------0-|----------------|2---------------|
D|----------------|----------------|----------------|----------------|
A|----------------|----------------|----------------|----------------|
E|----------------|----------------|----------------|----------------|

e|----------------|0---2-0---------|----------------|----------------|
B|--------0---3---|----------3-----|----------------|----------------|
G|0---2-----------|--------------0-|----------------|----------------|
D|----------------|----------------|----------------|----------------|
A|----------------|----------------|----------------|----------------|
E|----------------|----------------|----------------|----------------|

e|----------------|0---2-0---------|----------------|----------------|
B|--------0---3---|----------3-----|----------------|----------------|
G|0---2-----------|--------------0-|----------------|2---------------|
D|----------------|----------------|----------------|----------------|
A|----------------|----------------|----------------|----------------|
E|----------------|----------------|----------------|----------------|

e|----------------|----------------|----------------|----------------|
B|--------0-------|----------------|----------------|1-0-------------|
G|0---2-------2---|0---2-0-------0-|----------------|----2-0---2-0---|
D|----------------|----------2-----|----------------|--------------4-|
A|----------------|----------------|----------------|----------------|
E|----------------|----------------|----------------|----------------|

Bridge:

Guitar 1 (Capo 6th Fret)
									x4
e |----------------|----------------|----------------|----------------| ||
B |----------------|1-----1-----1---|----------------|----------------|.||
G |0-----0-----0---|0-0-0-0-0-0-0-00|0-----0-----0---|2-----2-----2-00| ||
D |2-2-2-2-2-2-2-22|2-2-2-2-2-2-2-22|0-0-0-0-0-0-0-00|0-0-0-0-0-0-0-00|.||
A |2-2-2-2-2-2-2-22|3-3-3-3-3-3-3-33|2-2-2-2-2-2-2-22|0-0-0-0-0-0-0-00| ||
E |0-0-0-0-0-0-0-00|----------------|3-3-3-3-3-3-3-33|0-0-0-0-0-0-0-00| ||

Guitar 2 (Capo 6th Fret)

e|----------------|0---2-0---------|----------------|----------------|
B|--------0---3---|----------3-----|----------------|----------------|
G|0---2-----------|--------------0-|----------------|2---------------|
D|----------------|----------------|----------------|----------------|
A|----------------|----------------|----------------|----------------|
E|----------------|----------------|----------------|----------------|

e|----------------|0---2-0---------|----------------|----------------|
B|--------0---3---|----------3-----|----------------|----------------|
G|0---2-----------|--------------0-|----------------|----------------|
D|----------------|----------------|----------------|----------------|
A|----------------|----------------|----------------|----------------|
E|----------------|----------------|----------------|----------------|

e|----------------|0---2-0---------|----------------|----------------|
B|--------0---3---|----------3-----|----------------|----------------|
G|0---2-----------|--------------0-|----------------|2---------------|
D|----------------|----------------|----------------|----------------|
A|----------------|----------------|----------------|----------------|
E|----------------|----------------|----------------|----------------|

e|----------------|----------------|----------------|----------------|
B|--------0-------|----------------|----------------|1-0-------------|
G|0---2-------2---|0---2-0-------0-|----------------|----2-0---2-0---|
D|----------------|----------2-----|----------------|--------------4-|
A|----------------|----------------|----------------|----------------|
E|----------------|----------------|----------------|----------------|

Verse 2:

Guitar 1 (Capo 6th Fret)
								
e |----------------|----------------|----------------|----------------|
B |----------------|1-----1-----1---|----------------|----------------|
G |0-----0-----0---|0-0-0-0-0-0-0-00|0-----0-----0---|2-----2-----2-00|
D |2-2-2-2-2-2-2-22|2-2-2-2-2-2-2-22|0-0-0-0-0-0-0-00|0-0-0-0-0-0-0-00|
A |2-2-2-2-2-2-2-22|3-3-3-3-3-3-3-33|2-2-2-2-2-2-2-22|0-0-0-0-0-0-0-00|
E |0-0-0-0-0-0-0-00|----------------|3-3-3-3-3-3-3-33|0-0-0-0-0-0-0-00|

e |----------------|----------------|----------------|----------------|
B |----------------|1-----1-----1---|----------------|----------------|
G |0-----0-----0---|0-0-0-0-0-0-0-0-|0-----0-----0---|2---------x-x-x-|
D |2-2-2-2-2-2-2-2-|2-2-2-2-2-2-2-2-|0-0-0-0-0-0-0-0-|0---------x-x-x-|
A |2-2-2-2-2-2-2-2-|3-3-3-3-3-3-3-3-|2-2-2-2-2-2-2-2-|0---------x-x-x-|
E |0-0-0-0-0-0-0-0-|----------------|3-3-3-3-3-3-3-3-|0---------x-x-x-|

e |----------------|----------------|----------------|----------------|
B |----------------|1-----1-----1---|----------------|----------------|
G |0-----0-----0---|0-0-0-0-0-0-0-00|0-----0-----0---|2-----2-----2-00|
D |2-2-2-2-2-2-2-22|2-2-2-2-2-2-2-22|0-0-0-0-0-0-0-00|0-0-0-0-0-0-0-00|
A |2-2-2-2-2-2-2-22|3-3-3-3-3-3-3-33|2-2-2-2-2-2-2-22|0-0-0-0-0-0-0-00|
E |0-0-0-0-0-0-0-00|----------------|3-3-3-3-3-3-3-33|0-0-0-0-0-0-0-00|

e |----------------|----------------|----------------|----------------|
B |----------------|1-----1-----1---|----------------|----------------|
G |0-----0-----0---|0-0-0-0-0-0-0-0-|0-----0-----0---|2---------------|
D |2-2-2-2-2-2-2-2-|2-2-2-2-2-2-2-2-|0-0-0-0-0-0-0-0-|0---------------|
A |2-2-2-2-2-2-2-2-|3-3-3-3-3-3-3-3-|2-2-2-2-2-2-2-2-|0---------------|
E |0-0-0-0-0-0-0-0-|----------------|3-3-3-3-3-3-3-3-|0---------------|

Guitar 2 (Capo 6th Fret)

e|----------------|0---2-0---------|----------------|----------------|
B|--------0---3---|----------3-----|----------------|----------------|
G|0---2-----------|--------------0-|----------------|2---------------|
D|----------------|----------------|----------------|----------------|
A|----------------|----------------|----------------|----------------|
E|----------------|----------------|----------------|----------------|

e|----------------|0---2-0---------|----------------|----------------|
B|--------0---3---|----------3-----|----------------|----------------|
G|0---2-----------|--------------0-|----------------|----------------|
D|----------------|----------------|----------------|----------------|
A|----------------|----------------|----------------|----------------|
E|----------------|----------------|----------------|----------------|

e|----------------|0---2-0---------|----------------|----------------|
B|--------0---3---|----------3-----|----------------|----------------|
G|0---2-----------|--------------0-|----------------|2---------------|
D|----------------|----------------|----------------|----------------|
A|----------------|----------------|----------------|----------------|
E|----------------|----------------|----------------|----------------|

e|----------------|----------------|----------------|----------------|
B|--------0-------|----------------|----------------|1-0-------------|
G|0---2-------2---|0---2-0-------0-|----------------|----2-0---2-0---|
D|----------------|----------2-----|----------------|--------------4-|
A|----------------|----------------|----------------|----------------|
E|----------------|----------------|----------------|----------------|

Chorus 2:

Guitar 1 (Capo 6th Fret)
									x4
e |----------------|----------------|----------------|----------------| ||
B |----------------|1-----1-----1---|----------------|----------------|.||
G |0-----0-----0---|0-0-0-0-0-0-0-00|0-----0-----0---|2-----2-----2-00| ||
D |2-2-2-2-2-2-2-22|2-2-2-2-2-2-2-22|0-0-0-0-0-0-0-00|0-0-0-0-0-0-0-00|.||
A |2-2-2-2-2-2-2-22|3-3-3-3-3-3-3-33|2-2-2-2-2-2-2-22|0-0-0-0-0-0-0-00| ||
E |0-0-0-0-0-0-0-00|----------------|3-3-3-3-3-3-3-33|0-0-0-0-0-0-0-00| ||

Guitar 2 (Capo 6th Fret)

e|----------------|0---2-0---------|----------------|----------------|
B|--------0---3---|----------3-----|----------------|----------------|
G|0---2-----------|--------------0-|----------------|2---------------|
D|----------------|----------------|----------------|----------------|
A|----------------|----------------|----------------|----------------|
E|----------------|----------------|----------------|----------------|

e|----------------|0---2-0---------|----------------|----------------|
B|--------0---3---|----------3-----|----------------|----------------|
G|0---2-----------|--------------0-|----------------|----------------|
D|----------------|----------------|----------------|----------------|
A|----------------|----------------|----------------|----------------|
E|----------------|----------------|----------------|----------------|

e|----------------|0---2-0---------|----------------|----------------|
B|--------0---3---|----------3-----|----------------|----------------|
G|0---2-----------|--------------0-|----------------|2---------------|
D|----------------|----------------|----------------|----------------|
A|----------------|----------------|----------------|----------------|
E|----------------|----------------|----------------|----------------|

e|----------------|----------------|----------------|----------------|
B|--------0-------|----------------|----------------|1-0-------------|
G|0---2-------2---|0---2-0-------0-|----------------|----2-0---2-0---|
D|----------------|----------2-----|----------------|--------------4-|
A|----------------|----------------|----------------|----------------|
E|----------------|----------------|----------------|----------------|

Bridge 2:

Guitar 1 (Capo 6th Fret)
									x4
e |----------------|----------------|----------------|----------------| ||
B |----------------|1-----1-----1---|----------------|----------------|.||
G |0-----0-----0---|0-0-0-0-0-0-0-00|0-----0-----0---|2-----2-----2-00| ||
D |2-2-2-2-2-2-2-22|2-2-2-2-2-2-2-22|0-0-0-0-0-0-0-00|0-0-0-0-0-0-0-00|.||
A |2-2-2-2-2-2-2-22|3-3-3-3-3-3-3-33|2-2-2-2-2-2-2-22|0-0-0-0-0-0-0-00| ||
E |0-0-0-0-0-0-0-00|----------------|3-3-3-3-3-3-3-33|0-0-0-0-0-0-0-00| ||

Guitar 2 (Capo 6th Fret)

e|----------------|0---2-0---------|----------------|----------------|
B|--------0---3---|----------3-----|----------------|----------------|
G|0---2-----------|--------------0-|----------------|2---------------|
D|----------------|----------------|----------------|----------------|
A|----------------|----------------|----------------|----------------|
E|----------------|----------------|----------------|----------------|

e|----------------|0---2-0---------|----------------|----------------|
B|--------0---3---|----------3-----|----------------|----------------|
G|0---2-----------|--------------0-|----------------|----------------|
D|----------------|----------------|----------------|----------------|
A|----------------|----------------|----------------|----------------|
E|----------------|----------------|----------------|----------------|

e|----------------|0---2-0---------|----------------|----------------|
B|--------0---3---|----------3-----|----------------|----------------|
G|0---2-----------|--------------0-|----------------|2---------------|
D|----------------|----------------|----------------|----------------|
A|----------------|----------------|----------------|----------------|
E|----------------|----------------|----------------|----------------|

e|----------------|----------------|----------------|----------------|
B|--------0-------|----------------|----------------|1-0-------------|
G|0---2-------2---|0---2-0-------0-|----------------|----2-0---2-0---|
D|----------------|----------2-----|----------------|--------------4-|
A|----------------|----------------|----------------|----------------|
E|----------------|----------------|----------------|----------------|

Outro:

Guitar 1 (Capo 6th Fret)
									x2
e |----------------|----------------|----------------|----------------| ||
B |----------------|1---------------|----------------|----------------|.||
G |0---------------|0---------------|0---------------|2---------------| ||
D |2---------------|2---------------|0---------------|0---------------|.||
A |2---------------|3---------------|2---------------|0---------------| ||
E |0---------------|----------------|3---------------|0---------------| ||

Guitar 2 (Capo 6th Fret)
*silent*
Добавлено: 15.06.2012
Другие материалы по этой песне:

Страница создана 15.06.2012
http://primanota.ru/kate-mcgill/kids-chords.htm
Привет, Гость.
Предлагаем пройти революционный курс по гитаре.
Подарок от PrimaNota.Ru, забирай!