PrimaNota.ru - самый крупный в мире бесплатный архив песенных текстов, аккордов, табулатур и нот


Kate Boy - The Way We Are - бас-таба, видео

Регистрация Запомнить меня
Войти через:  Facebook Google Twitter Vk Yandex Mail.ru

Kate Boy - The Way We Are - бас-таба, видео

Печатать
Просмотров: 137
Авторы: Markus Dextegen, Hampus Nordgren Hemlin, Kate Akhurst, Oskar Engström

Artist: Kate Boy
Song: The Way We Are
Tabbed by: Dave Sheehan

Please rate :)

Live version for reference: http://youtu.be/B4LG-QVMuXg?t=11m33s

VERSE

G|-----------------|
D|------------6--6-|
A|-8--8---8--------|
E|-----------------|
   1 + 2 + 3 + 4 +

PRECHORUS (0:47)

G|-----------------|------------------|-------------------|------------------|
D|---10------------|----13------------|-------------------|------------------|
A|-8-----8----8-10-|-11----11---11-13-|----11---------11--|---11---------11--|
E|-----------------|------------------|--9-----9----9-----|-9----9-----9-----|
   1 + 2 + 3 + 4 +    1 + 2 + 3 + 4 +    1 + 2 + 3 + 4 +    1 + 2 + 3 + 4 + 


G|-----------------|------------------|-------------------|
D|---10------------|----13------------|-------------------|
A|-8-----8----8-10-|-11----11---11-13-|----11---------11--|
E|-----------------|------------------|--9-----9----9-----|
   1 + 2 + 3 + 4 +    1 + 2 + 3 + 4 +    1 + 2 + 3 + 4 +   


CHORUS (1:04)

G|-----------------|------------------|-------------------|------------------|
D|---10------------|----13------------|-------------------|------------------|
A|-8-----8----8-10-|-11----11---11-13-|----11---------11--|---11---------11--|
E|-----------------|------------------|--9-----9----9-----|-9----9-----9-----|
   1 + 2 + 3 + 4 +    1 + 2 + 3 + 4 +    1 + 2 + 3 + 4 +    1 + 2 + 3 + 4 + 


VERSE
PRECHORUS
CHORUS

BREAKDOWN (2:46) (play verse)
PRECHORUS (3:03)
BREAK (3:20) (play nothing)
OUTRO (3:37) (play verse)



| /  slide up
| \  slide down
| h  hammer-on
| p  pull-off
| ~  vibrato
| +  harmonic
| x  Mute note
Добавлено: 11.07.2015
Другие материалы по этой песне:
  • Аккорды и текст

Страница создана 11.07.2015
http://primanota.ru/kate-boy/way-we-are-chords.htm
Привет, Гость.
Предлагаем пройти революционный курс по гитаре.
Подарок от PrimaNota.Ru, забирай!