PrimaNota.ru - самый крупный в мире бесплатный архив песенных текстов, аккордов, табулатур и нот


Kate Boy - Self Control - бас-таба, видео

Регистрация Запомнить меня
Войти через:  Facebook Google Twitter Vk Yandex Mail.ru

Kate Boy - Self Control - бас-таба, видео

Печатать
Просмотров: 160
Авторы: Markus Dextegen, Hampus Nordgren Hemlin, Kate Akhurst

Artist: Kate Boy
Song: Self Control
Tabbed by: Dave Sheehan

Live studio version (for reference): https://www.youtube.com/watch?v=yxRYAerpw6I

Please rate :)


VERSE

G|-------99-------9-----|------------------------|------------------------|-------------------------|
D|-9/11-------11--------|---------99------9------|----------77------7-----|----------99--------9----|
A|----------------------|--9/11-------11---------|---7/9--------9---------|---9/11---------11-------|
E|----------------------|------------------------|------------------------|-------------------------|


PRECHORUS (0:34)

G|---------99-------9-----|-------------------------|----------------------|-------------------------|
D|-9/11---------11--------|---------99-------9------|---------77-----7-----|----------99-------9-----|
A|------------------------|--9/11--------11---------|---7/9-------9--------|---9/11--------11--------|
E|------------------------|-------------------------|----------------------|-------------------------|

G|---------99-------9-----|-------------------------|----------------------|-------------------------|
D|-9/11---------11--------|---------99-------9------|---------77-----7-----|---------77-------7------|
A|------------------------|--9/11--------11---------|---7/9-------9--------|---7/9--------9----------|
E|------------------------|-------------------------|----------------------|-------------------------|


CHORUS

G|------------------------|-------------------------|---------------------|-----------------------|
D|----------22------2-----|-------------------------|---------------------|-----------------------|
A|---2\44--------4--------|-----------2--------2----|---------------------|----------2-----2------|
E|------------------------|---2\4----------4--------|---0h22---55--2--5---|---2/4-------4---------|





| /  slide up
| \  slide down
| h  hammer-on
| p  pull-off
| ~  vibrato
| +  harmonic
| x  Mute note
Добавлено: 11.07.2015
Другие материалы по этой песне:
  • Аккорды и текст

Страница создана 11.07.2015
http://primanota.ru/kate-boy/self-control-chords.htm
Привет, Гость.
Предлагаем пройти революционный курс по гитаре.
Подарок от PrimaNota.Ru, забирай!