PrimaNota.ru - самый крупный в мире бесплатный архив песенных текстов, аккордов, табулатур и нот


Kate Boy - Northern Lights - бас-таба, видео

Регистрация Запомнить меня
Войти через:  Facebook Google Twitter Vk Yandex Mail.ru

Kate Boy - Northern Lights - бас-таба, видео

Печатать
Просмотров: 144
Авторы: Markus Dextegen, Hampus Nordgren Hemlin, Kate Akhurst, Oskar Engström

Artist: Kate Boy
Song: Northern Lights
Tabbed by: Dave Sheehan

Please rate :)


VERSE

G|--------------------|---------------5----|--------------------|--------------------|
D|--5--5--5--5---8--8-|--5--5--5--5------8-|---------------8--8-|---------------8--8-|
A|--------------------|--------------------|--6--6--6--6--------|--6--6--6--6--------|
E|--------------------|--------------------|--------------------|--------------------|

PRECHORUS (0:50)

G|----------------------|--------------------|--------------------|
D|---------------10--10-|--5--5--5--5--------|---------------8--8-|
A|--8--8--8--8----------|---------------5--5-|--6--6--6--6--------|
E|----------------------|--------------------|--------------------|

G|----------------------|--------------------|--------------------|
D|---------------10--10-|--5--5--5--5--------|--------------------|
A|--8--8--8--8----------|---------------5--5-|--3--3--3--3---6--6-|
E|----------------------|--------------------|--------------------|


CHORUS

G|----------------------|--------------------|--------------------|--------------------|
D|---------------10--10-|--5--5--5--5--------|---------------8--8-|---------------8--8-|
A|--8--8--8--8----------|---------------5--5-|--6--6--6--6--------|--6--6--6--6--------|
E|----------------------|--------------------|--------------------|--------------------|

G|----------------------|--------------------|--------------------|--------------------|
D|---------------10--10-|--5--5--5--5--------|---------------8--8-|--------------------|
A|--8--8--8--8----------|---------------5--5-|--6--6--6--6--------|--3--3--3--3---6--6-|
E|----------------------|--------------------|--------------------|--------------------|



POSTCHORUS (1:25) (first two bars played quiet + with reverb)

G|----------------------|--------------------|--------------------|--------------------|
D|---------------10--10-|--5--5--5--5--------|---------------8--8-|---------------8--8-|
A|--8--8--8--8----------|---------------5--5-|--6--6--6--6--------|--6--6--6--6--------|
E|----------------------|--------------------|--------------------|--------------------| x1


VERSE
BREAK
CHORUS


| /  slide up
| \  slide down
| h  hammer-on
| p  pull-off
| ~  vibrato
| +  harmonic
| x  Mute note
Добавлено: 11.07.2015
Вам также может быть интересно:
Другие материалы по этой песне:
  • Аккорды и текст

Страница создана 11.07.2015
http://primanota.ru/kate-boy/northern-lights-chords.htm
Привет, Гость.
Предлагаем пройти революционный курс по гитаре.
Подарок от PrimaNota.Ru, забирай!