PrimaNota.ru - самый крупный в мире бесплатный архив песенных текстов, аккордов, табулатур и нот


Kate Boy - Lion For Real - бас-таба, видео

Регистрация Запомнить меня
Войти через:  Facebook Google Twitter Vk Yandex Mail.ru

Kate Boy - Lion For Real - бас-таба, видео

Печатать
Просмотров: 254
Авторы: Markus Dextegen, Hampus Nordgren Hemlin, Kate Akhurst, Oskar Engström

Artist: Kate Boy
Song: Lion For Real
Tabbed by: Dave Sheehan


Tabbed from this live video: https://www.youtube.com/watch?v=B4LG-QVMuXg

Please rate this tab :)


VERSE

G|-----------------|-----------------|
D|-----------2-----|-----------2-4---|
A|-4--4--0-2-------|-4--4--0-2-------|
E|-----------------|-----------------|
   1 & 2 & 3 & 4 &   1 & 2 & 3 & 4 &  

BREAK 

(I suspect this isn't exact time wise but I'll re-tab this when the recorded version is released)

G|-------------------------|-------------------------|
D|-------------------------|-------------------------|
A|--/16----16----16-----16-|------16-----------------|
E|-----14----14----14------|--14--------14-----------|
   1  &  2  &  3  &  4  &    1  &  2  &  3  &  4  &  


CHORUS

G|-----------------|-----------------|-----------------|-----------------|
D|--------------7--|-----------7-9---|--------------7--|-----------7-9---|
A|-9-9--------9----|-9-9-----9-------|-5-5--------5----|-5-5-----5-------|
E|-----------------|-----------------|-----------------|-----------------|
   1 & 2 & 3 & 4 &   1 & 2 & 3 & 4 &   1 & 2 & 3 & 4 &   1 & 2 & 3 & 4 & 


POSTCHORUS


G|-----------------|
D|-----------------|
A|-4--/---16--\----|
E|-----------------|
   1 & 2 & 3 & 4 &  


VERSE
CHORUS


CHORUS VARIATION ("Lion for real")

G|-----------------|-----------------|-----------------|-----------------|
D|--------------9--|-----------7-9---|--------------7--|-----------7-9---|
A|-7-7--------7----|-9-9-----9-------|-5-5--------5----|-5-5-----5-------|
E|-----------------|-----------------|-----------------|-----------------|
   1 & 2 & 3 & 4 &   1 & 2 & 3 & 4 &   1 & 2 & 3 & 4 &   1 & 2 & 3 & 4 & 





| /  slide up
| \  slide down
| h  hammer-on
| p  pull-off
| ~  vibrato
| +  harmonic
| x  Mute note
Добавлено: 11.07.2015
Другие материалы по этой песне:
  • Аккорды и текст

Страница создана 11.07.2015
http://primanota.ru/kate-boy/lion-for-real-chords.htm
Привет, Гость.
Предлагаем пройти революционный курс по гитаре.
Подарок от PrimaNota.Ru, забирай!