PrimaNota.ru - самый крупный в мире бесплатный архив песенных текстов, аккордов, табулатур и нот


Kate Alexa - My Day Will Come - текст песни, таба, видео

Регистрация Запомнить меня
Войти через:  Facebook Google Twitter Vk Yandex Mail.ru

Kate Alexa - My Day Will Come - текст песни, таба, видео

Печатать
Просмотров: 196
Уроки эстрадного вокала в Санкт-Петербурге


This is reasonbly new but i loved the start of the song so i decided to figure it out 
enjoy peoples, its really pretty...mud_cake42

I figured  it aaaall by myself :)



-----2--------------------------------------
-----3----3------------3----------2---0-----
----------------------------------2---------
-0------------------0-----------------0-----
----------2------2----------0---------------
--------------------------------------------


-----2---------------------------------------
-----3---3------2h3p2-------------2---0---------
----------------------------------2----------
-0------------------------------------0-------
---------2-----------------0------------------
--------------------------------------------


Practically it goes like that for ages in the song...



Добавлено: 22.09.2013
Другие материалы по этой песне:
  • Аккорды и текст

Страница создана 26.07.2012
http://primanota.ru/kate-alexa/my-day-will-come-chords.htm
Привет, Гость.
Предлагаем пройти революционный курс по гитаре.
Подарок от PrimaNota.Ru, забирай!