PrimaNota.ru - самый крупный в мире бесплатный архив песенных текстов, аккордов, табулатур и нот


Katatonia - Undo You - аккорды и текст, таба, видео

Регистрация Запомнить меня
Войти через:  Facebook Google Twitter Vk Yandex Mail.ru

Katatonia - Undo You - аккорды и текст, таба, видео

Печатать
Просмотров: 216
Авторы музыки: Anders Nyström
Авторы текста: Anders Nyström
Undo You
Katatonia
Katatonia - Undo You


Capo on 1st fret



Intro:

|Am      |G    F  |  x4
|F#m     |G       |
|G#m     |        |


Verse 1:

   Am
At life's four-way stop

The tinges in your shadow drop
               F
Fate pulls you down for the count
            E7
With broken promises to amount

Am
Time seal our ways

To the heart of our hiding place
             F
When all our lifelines have been crossed
     E7                                F#m    E  F#m
Some scars can never heal from what we lost

F#m      E   F#m

Am  C#m  G   G#m



Chorus:

Bm          G#m                 G
To fail the test and depart the strong

Is to light the way where you have gone
Bm           G#m         G
For only our funerals to come
                                 
A requiem in death, a song

Bm    D#m    Cm


e|-----------------------------------------------------|
B|----------0---------------0---------------2----------|
G|--------0---0-----------0---0-----------0---0--------|
D|------1-------1-------1-------1-------1-------1------|
A|----2-----------2---2-----------2---2-----------2----|
E|--0---------------0---------------0---------------0--|



Verse 2:

       Am
And it seems to be
                             F
That consistency is not what lingers ahead
      E7
But a virtue of the dead

Am
One of these days

Hours pass yet the night stays
          F
When your spirit won't turn anew
    E7                                   Am
The world shuts down with no goodbye to undo you



Bridge:

Am       G   *F/A
Am       G    F/A

Am            G
Breathing lifeless
            F/A      Am
We are not afraid to die
                  G
Breathe in life's less
        F/A          Am
You're afraid not to live

Am       G    F/A
Am       G    F/A

Am            G
Breathing lifeless
            F/A      Am
We are not afraid to die
                  G
Breathe in life's less
        F/A          Am
You're afraid not to live

Am  C#m  G  G#m



Chorus:


Bm          G#m                 G
To fail the test and depart the strong

Is to light the way where you have gone
Bm           G#m         G
For only our funerals to come
                                 
A requiem in death, a song

Bm    D#m    Cm

e|-----------------------------------------------------|
B|----------0---------------0---------------0----------|
G|--------0---0-----------0---0-----------0---0--------|
D|------1-------1-------1-------1-------1-------1------|
A|----2-----------2---2-----------2---2-----------2----|
E|--0---------------0---------------0---------------0--|



Katatonia never fails, great song!

   *F/A
 e|-----|
 B|--1--|
 G|--2--|
 D|--3--|
 A|--0--|
 E|-----|


Добавлено: 15.06.2015
Другие материалы по этой песне:

Страница создана 18.08.2013
http://primanota.ru/katatonia/undo-you-chords.htm
Привет, Гость.
Предлагаем пройти революционный курс по гитаре.
Подарок от PrimaNota.Ru, забирай!