PrimaNota.ru - самый крупный в мире бесплатный архив песенных текстов, аккордов, табулатур и нот


Katatonia - Gone - текст песни, таба, видео

Регистрация Запомнить меня
Войти через:  Facebook Google Twitter Vk Yandex Mail.ru

Katatonia - Gone - текст песни, таба, видео

Печатать
Просмотров: 140
Artist: Katatonia
Song: Gone
Album: Discouraged Ones (1998)

Tuning: Drop Db (Db-Ab-Db-Gb-Bb-Eb)

Symbols:
h: hammer-on
p: pull-off
(0): Played alternately

Guitar 1 (Clean, Distorted at 1:23)

|---------------------------------------------------|
|---------------------------------------------------|
|-(0)----------------------------------------------o|
|--4----0-------4--4-4-4--7--7--7---7--------0-----o|
|--2----2p0-5---4--4-4-4--5--5--5---5------4---4----|
|-----------4p0-4--4-4-4--5--5--5-5----2h4----------|

Guitar 2 (Enters at 1:23 over Gtr. 1)

|-------------------------------------------|
|-------------------------------------------|
|--4----------------------------6-6--7-7---o|
|--4----4-4-4-0-4--4-4-4--7--7--7-7--7-7---o|
|--2----2-0-4-0-4--4-4-4--5--5--5-5--5-5----|
|-----------4-0-4--4-4-4--5--5--5-5--5-5----|

That's it!
Добавлено: 28.10.2015
Другие материалы по этой песне:

Страница создана 22.03.2012
http://primanota.ru/katatonia/gone-chords.htm
Привет, Гость.
Предлагаем пройти революционный курс по гитаре.
Подарок от PrimaNota.Ru, забирай!