PrimaNota.ru - самый крупный в мире бесплатный архив песенных текстов, аккордов, табулатур и нот


Katastro - Gentle Predator - таба, видео

Регистрация Запомнить меня
Войти через:  Facebook Google Twitter Vk Yandex Mail.ru

Katastro - Gentle Predator - таба, видео

Печатать
Просмотров: 143
e|-----------------4-2---------------------------------------4-2--------------------------------|
B|------5---------2---2-------2-------------------5---------2---2-------2-----------------------|
G|----6--6------------------3--3-------3--------6--6------------------3--3----------------------|x3
D|---6----6-----4----------4---------4--4-2----6----6-----4---------4----------4-4444---4-4444--|
A|--4----------2----------4-----4---4---------4----------2---------4------4----4-4444---4-4444--|
E|---------------------------------2-------------------------------------------0h2------0h2-----|

0:46
e|--4-44-44--4-44-44--2-22-44----2222----3333----------------------------------|
B|--3-33-33--4-44-44--4-44-44----2222----3333----------------------------------|
G|--6-66-66--5-55-55--4-44-44----3333----3333----------------------------------|x4
D|--6-66-66--6-66-66--4-44-44--4-4444--4-4444----------------------------------|
A|--4-44-44--6-66-66--2-22-22--4-4444--4-4444----------------------------------|
E|-----------4-44-44-----------0h2222--0h2222----------------------------------|



e|-----------------4-2---------------------------------------4-2--------------------------------|
B|------5---------2---2-------2-------------------5---------2---2-------2-----------------------|
G|----6--6------------------3--3-------3--------6--6------------------3--3----------------------|x1
D|---6----6-----4----------4---------4--4-2----6----6-----4---------4----------4-4444---4-4444--|
A|--4----------2----------4-----4---4---------4----------2---------4------4----4-4444---4-4444--|
E|---------------------------------2-------------------------------------------0h2------0h2-----|


e|--4-44-44--4-44-44--2-22-44-4444---2222----3333----------------------------------|
B|--3-33-33--4-44-44--4-44-44-4444---2222----3333----------------------------------|
G|--6-66-66--5-55-55--4-44-44-4444---3333----3333----------------------------------|x3
D|--6-66-66--6-66-66--4-44-44-4444-4-4444--4-4444----------------------------------|
A|--4-44-44--6-66-66--2-22-22-2222-4-4444--4-4444----------------------------------|
E|-----------4-44-44---------------0h2222--0h2222----------------------------------|

1:56
rest first two measures
e|--2-22-44-4444---2222----3333-|
B|--4-44-44-4444---2222----3333-|
G|--4-44-44-4444---3333----3333-|x1
D|--4-44-44-4444-4-4444--4-4444-|
A|--2-22-22-2222-4-4444--4-4444-|
E|---------------0h2222--0h2222-|

e|--4-44-44--4-44-44--2-22-44-4444---2222----3333----------------------------------|
B|--3-33-33--4-44-44--4-44-44-4444---2222----3333----------------------------------|
G|--6-66-66--5-55-55--4-44-44-4444---3333----3333---6------------------------------|x1
D|--6-66-66--6-66-66--4-44-44-4444-4-4444--4-4444---6------------------------------|
A|--4-44-44--6-66-66--2-22-22-2222-4-4444--4-4444---4------------------------------|
E|-----------4-44-44---------------0h2222--0h2222----------------------------------|


e|-----------------4-2---------------------------------------4-2--------------------------------|
B|------5---------2---2-------2-------------------5---------2---2-------2-----------------------|
G|----6--6------------------3--3-------3--------6--6------------------3--3----------------------|x1
D|---6----6-----4----------4---------4--4-2----6----6-----4---------4----------4-4444---4-4444--|
A|--4----------2----------4-----4---4---------4----------2---------4------4----4-4444---4-4444--|
E|---------------------------------2-------------------------------------------0h2------0h2-----|


e|-----------------4-2---------------------------------------4-2--------------------------------|
B|------5---------2---2-------2-------------------5---------2---2-------2-----------------------|
G|----6--6------------------3--3-------3--------6--6------------------3--3----------------------|x1
D|---6----6-----4----------4---------4--4-2----6----6-----4---------4----------4-4--------------|
A|--4----------2----------4-----4---4---------4----------2---------4------4----4-4--------------|
E|---------------------------------2-------------------------------------------0h2--------------|


e|-----------------4-2---------------------------------------4-2--------------------------------|
B|------5---------2---2-------2-------------------5---------2---2-------2-----------------------|
G|----6--6------------------3--3-------3--------6--6------------------3--3----------------------|x1
D|---6----6-----4----------4---------4--4-2----6----6-----4---------4----------4-4444---4-4444--|
A|--4----------2----------4-----4---4---------4----------2---------4------4----4-4444---4-4444--|
E|---------------------------------2-------------------------------------------0h2------0h2-----|


e|--4-44-44--4-44-44--2-22-44-4444---2222----3333----------------------------------|
B|--3-33-33--4-44-44--4-44-44-4444---2222----3333----------------------------------|
G|--6-66-66--5-55-55--4-44-44-4444---3333----3333----------------------------------|x4
D|--6-66-66--6-66-66--4-44-44-4444-4-4444--4-4444----------------------------------|
A|--4-44-44--6-66-66--2-22-22-2222-4-4444--4-4444----------------------------------|
E|-----------4-44-44---------------0h2222--0h2222----------------------------------|

e|------------------------------------------------------------------------------|
B|--------------------5---4---9--8--------------------5--4--9--8----------------|
G|-----6-------5-----6---5---9---7-----6-------8-----6--5--9---7-----6------8---|x1
D|----7-7-----6-6----------------9----7-7-----9-9--------------9----7-7----9-7--|
A|---7---7---6---6--4-------7----7---7---7---9---9--4-----7----7---7---7--9---7-|
E|--5-------4-----------4------------5------7-----------4----------5------7-----|


e|-----------------4-2---------------------------------------4-2-----------------------------------|
B|------5---------2---2-------2-------------------5---------2---2-------2--------------------------|
G|----6--6------------------3--3-------3--------6--6------------------3--3-------------------------|
D|---6----6-----4----------4---------4--4-2----6----6-----4---------4----------4-4444---4-4444-----|
A|--4----------2----------4-----4---4---------4----------2---------4------4----4-4444---4-4444--2-4|
E|---------------------------------2-------------------------------------------0h2------0h2--------|
Добавлено: 17.07.2013
Вам также может быть интересно:
Другие материалы по этой песне:
  • Аккорды и текст

Страница создана 17.07.2013
http://primanota.ru/katastro/gentle-predator-chords.htm
Привет, Гость.
Предлагаем пройти революционный курс по гитаре.
Подарок от PrimaNota.Ru, забирай!